Song name
# A B C D E F G H I J K L M N O P Q R S T U V W X Y Z

Bring Me The Horizon - Tell Slater Not To Wash His Dick tab

                       TELL SLATER NOT TO WASH HIS DICK
                            Bring Me The Horizon
                 (From The 2006 Album Count Your Blessings)


Transcribed by Jonathan Casper (confinedforever)

Gtr 1 - Tuning Drop B - (B F# B E G# C#)

/ - SLIDE UP TO          h - HAMMER ON
\ - SLIDE DOWN TO        p - PULL OF
~ - HOLD NOTE            * - PALM MUTE
t - TREMOLO PICKING     [] - ARTIFICAL PINCH HARMONIC


I don't know the solo beginning Cuz i dont have a floater so i'll put that up soon!

Please tell me what u think and any changes i could make! 


  Solo Rhythm 
|--------------------------------------------------|
|--------------------------------------------------|
|--------------------------------------------------|
|------------------8---7---------------------------|
|-8p5----4----4----------8p5----4----4--------5h8--|
|-----00---00---00---0-------00---00---00-5h8------|
      **   **   **   *       **   **   **

|-----------------------------------------------|
|-----------------------------------------------|
|-----------------------------------------------|
|------------------8-7-5------------------------|
|-5------5h8-4-----------8p5---------------5h8--|
|---0000-------00------------00-5h8-00-5h8------|
    ****       **            **     **

  Verse 1
|-------------------------------------------------------|
|-------------------------------------------------------|
|-------------------------------------------------------| x4
|------------------8-7-5-----------------------5h7------|
|-5------5h8-4-----------8p5---------------5h8-----5h8--|
|---0000-------00------------00-5h8-00-5h8--------------|
    ****       **            **     **  

  Verse 2
|--------------------------------------------------------------------|
|--------------------------------------------------------------------|
|--------------------------------------------------------------------|
|--------------------------------------8-----------------------------|
|-5--------8---7---------10---8------------12------------------------|
|---0-0000---0---0-7777-----7---7-8888---8----8-11111111-(as in 11)--|
    * ****   *   * ****     *   * ****   *    * ******** 

|---------------------------------------------------------------------|
|---------------------------------------------------------------------|
|---------------------------------------------------------------------|
|--------------------------------------8----121212121010101088887777--|
|-5--------8---7---------10---8---------------------------------------|
|---0-0000---0---0-7777-----7---7-8888---8----------------------------|
    * ****   *   * ****     *   * ****   *


Verse 1 x2
verse 2 x2


 All the muted notes are 0 they dont change when the bass line changes from
  0 - 8 - 5 as it sounds, the guitars stay at 0
 Verse 3
|----------------------------------------------------------|
|----------------------------------------------------------|
|----------------------------------------------------------| 
|------------7------------------8--------------------------|
|---5---7------(x2)----5---7------(x2)----5---7---8--(x4)--|
|-0---0---0----------0---0---0----------0---0---0----------|
  *   *   *          *   *   *          *   *   *        
                                                  (these 2 sections x2)
                                                         
|------------------------------------------------------------------------|
|------------------------------------------------------------------------|
|------------------------------------------------------------------------| 
|------------7------------------8----------------------------------------|
|---5---7------(x2)----5---7------(x2)------8p5---5-7-8------4-6-7-5-7-8-|
|-0---0---0----------0---0---0---------0000-----0-------0000-------------|
  *   *   *          *   *   *         ****     *       **** 


  Second bit of Verse 3 (x2)
|--------------------------------------------------------------------------|
|--------------------------------------------------------------------------|
|--------------------------------------------------------------------------|
|-12---10---8---------8---7------------------------------------------------|
|---------------(x2)----------10----(x2)------8p5---5-7-8------4-6-7-5-7-8-|
|----0---0----0---------0---0----0-------0000-----0-------0000-------------|
     *   *    *        *   *    *        ****     *       ****

|----------17-------------------------|
|-------16----16------------------18--|
|----17----------17-----19/21-19------| 
|-19----------------19----------------|
|-------------------------------------|
|-------------------------------------| 

|-------------------------------------|
|-------------------------------------|
|-------------------------------------| 
|-8-----------------5-------------10--|
|-8-----------------5-------------10--|
|-8-----------------5-------------10--|  

 Pre-Breakdown
|-----------------------------------------------------|
|-----------------------------------------------------|
|-----------------------------------------------------|
|-0-----------0-3-1-0-4-0-1-3-0-0-----------54444111--|
|-0-----------0-3-1-0-4-0-1-3-0-0-----------54444111--|
|-0--00000000-0-3-1-0-4-0-1-3-0-0--00000000-54444111--|
     ******** * * * *   *     * *  ********   

|-----------------------------------------------------------|
|-----------------------------------------------------------|
|-----------------------------------------------------------|
|-0-0-----------0-3-1-0-4-0-1-3-0-0-----------011112-----0--|
|-0-0-----------0-3-1-0-4-0-1-3-0-0-----------011112-----0--|
|-0-0--00000000-0-3-1-0-4-0-1-3-0-0--00000000-011112-[3]-0--|
  *    ******** * * * *   *     * *  ********            *

         ----------|MOVE|----------

  Breakdown
|-------------------------------------------------------|
|-------------------------------------------------------|
|-------------------------------------------------------|
|-0-0-----------0-3-1-0-4-0-1-3-0-0-----------54444111--|
|-0-0-----------0-3-1-0-4-0-1-3-0-0-----------54444111--|
|-0-0--00000000-0-3-1-0-4-0-1-3-0-0--00000000-54444111--|
  * *  ******** * * * *   *     * *  ********   

|---------------------------------------------------------|
|---------------------------------------------------------|
|---------------------------------------------------------|
|-0-0-----------0-3-1-0-4-0-1-3-0-0-----------011112------|
|-0-0-----------0-3-1-0-4-0-1-3-0-0-----------011112------|
|-0-0--00000000-0-3-1-0-4-0-1-3-0-0--00000000-011112-[3]--|
  * *  ******** * * * *   *     * *  ********  

|-------------------------------------------------------|
|-------------------------------------------------------|
|-------------------------------------------------------|
|-0-0-----------0-3-1-0-4-0-1-3-0-0-----------54444111--|
|-0-0-----------0-3-1-0-4-0-1-3-0-0-----------54444111--|
|-0-0--00000000-0-3-1-0-4-0-1-3-0-0--00000000-54444111--|
  * *  ******** * * * *   *     * *  ********

  Tempo slows down here
|--------------------------------|
|--------------------------------|
|--------------------------------|
|-0-0-----------0-3-1-0-4-0-1-3--|
|-0-0-----------0-3-1-0-4-0-1-3--|
|-0-0--00000000-0-3-1-0-4-0-1-3--|
  * *  ******** * * * *   * * *

|-------------------------------------------------------|
|-------------------------------------------------------|
|-------------------------------------------------------|
|-0-0-----------0-3-1-0-4-0-1-3-0-0-----------54444111--|
|-0-0-----------0-3-1-0-4-0-1-3-0-0-----------54444111--|
|-0-0--00000000-0-3-1-0-4-0-1-3-0-0--00000000-54444111--|
  * *  ******** * * * *   *     * *  ********   

|-------------------------------------------------------------|
|-------------------------------------------------------------|
|-------------------------------------------------------------|
|-0-0-----------0-3-1-0-4-0-1-3-0-0-----------011112-----0-0--|
|-0-0-----------0-3-1-0-4-0-1-3-0-0-----------011112-----0-0--|
|-0-0--00000000-0-3-1-0-4-0-1-3-0-0--00000000-011112-[3]-0-0--|
  * *  ******** * * * *   *     * *  ********            * *   

 Verse 4

 (PICKED VERY FAST)
|--------------------------1212121212121212121213131313131313131313--|
|-151515151515151515151515-------------------------------------------|
|--------------------------------------------------------------------|
|--------------------------------------------------------------------|
|--------------------------------------------------------------------|
|--------------------------------------------------------------------| 

|--------------------------1818181818181818181817171717171717171717--|
|-111111111111111111111111-------------------------------------------|
|--------------------------------------------------------------------|
|--------------------------------------------------------------------|
|--------------------------------------------------------------------|
|--------------------------------------------------------------------|

|--------------------------1212121212121212121213131313131313131313--|
|-151515151515151515151515-------------------------------------------|
|--------------------------------------------------------------------|
|--------------------------------------------------------------------|
|--------------------------------------------------------------------|
|--------------------------------------------------------------------|

|--------------------------1818181818181818181817171717171717171717--|
|-111111111111111111111111-------------------------------------------|
|--------------------------------------------------------------------|
|--------------------------------------------------------------------|
|--------------------------------------------------------------------|
|--------------------------------------------------------------------|

|--------------------------1212121212121212121213131313131313131313--|
|-151515151515151515151515-------------------------------------------|
|--------------------------------------------------------------------|
|--------------------------------------------------------------------|
|--------------------------------------------------------------------|
|--------------------------------------------------------------------|

  Rhythm backing for the top bit is
|--------------|
|--------------|
|--------------| 
|-8----5----7--|
|-8----5----5--|
|-8----5-------|

    End
                
Tap to rate this tab
# A B C D E F G H I J K L M N O P Q R S T U V W X Y Z