Song name
# A B C D E F G H I J K L M N O P Q R S T U V W X Y Z

British Beef - Without Me tab

Ok this is my first attempt at a tab!!!
Playing this at a B.O.T.B's and thought that it really ought to be tabbed!

Soo here goes:

Drop half tuning (eb, ab, db, gb, bb, eb)

Lead Guitar
eb-------------------------------------|
Bb----5555-44-7777-444-----------------|
Gb----4444-44-4444-444 x8 (Stay on -7--| on the last time)
Db--------------------             -4--|
Ab-------------------------------------|
Eb-------------------------------------|

Rhythm Guitar
eb----------------------------------------------------------------------|
Bb----------------------------------------------------------------------|
Gb----9999------------4444------------6666------------------------------|
Db----9999------------4444------------6666---------------7777-777777777-|
Ab----7777------------2222------------4444---------------7777-777777777-|
Eb----0000-----------------------------------------------5555-555555555-|

eb----------------------------------------------------------------------|
Bb----------------------------------------------------------------------|
Gb----999999999999999-444444444444444-666666666666666666----------------|
Db----999999999999999-444444444444444-666666666666666666-7777-777777777-|
Ab----777777777777777-222222222222222-444444444444444444-7777-777777777-|
Eb----000000000000000------------------------------------5555-555555555-|

Verse: Just bass first time:

Lead Guitar
eb-------------------------------------------------|
Bb-5-----5-----5-----5-----5-----5-----5-----5-----|
Gb----4-----4-----4-----4-----4-----4-----4--------|
Db-------------------------------------------------|
Ab-------------------------------------------------|
Eb-------------------------------------------------|

eb-------------------------------------------------|
Bb-5-----5-----5-----5-----2-----2-----2-----2-----|
Gb----4-----4-----4-----4-----2-----2-----2-----2--|
Db-------------------------------------------------|
Ab-------------------------------------------------|
Eb-------------------------------------------------|


Rhythm Guitar

eb-/--------------------------------------------------------------------|
Bb-/--------------------------------------------------------------------|
Gb-/--999999999999999-444444444444444-666666666666666666----------------|
Db-/--999999999999999-444444444444444-666666666666666666-7777-777777777-|
Ab-/--777777777777777-222222222222222-444444444444444444-7777-777777777-|
Eb-/--000000000000000------------------------------------5555-555555555-|

Pre-Chorus:

Rhythm and Lead Guitar
eb---------------------|
Bb-------=-------------|
Gb---------------------|
Db----999999999999999--|
Ab----999999999999999--|
Eb----777777777777777--|
   Without Me........ Stop...

Chorus:

Rhythm and Lead Guitar
eb------------------------------------------------------------|
Bb------------------------------------------------------------|
Gb--99999--44444--66666---------99999--44444--66666-----------|
Db--99999--44444--66666--77777--99999--44444--66666--7-7-7-77-|
Ab--77777--22222--44444--77777--77777--22222--44444--7-7-7-77-| (Hold)
Eb--00000----------------55555--00000----------------5-5-5-55-|

Pre-Verse:

Lead Guitar
eb----------------------|
Bb----5555-44-7777-444--|
Gb----4444-44-4444-444--| x2
Db----------------------|
Ab----------------------|
Eb----------------------|

Rhythm Guitar
eb--------\-|
Bb----------|
Gb--9-----\-| (Hold then pickslide)
Db--9-------|
Ab--7-----\-|
Eb--0-------|

2nd Verse:

Lead Guitar
eb-------------------------------------------------|
Bb-5-----5-----5-----5-----5-----5-----5-----5-----|
Gb----4-----4-----4-----4-----4-----4-----4--------|
Db-------------------------------------------------|
Ab-------------------------------------------------|
Eb-------------------------------------------------|

eb-------------------------------------------------|
Bb-5-----5-----5-----5-----2-----2-----2-----2-----|
Gb----4-----4-----4-----4-----2-----2-----2-----2--|
Db-------------------------------------------------|
Ab-------------------------------------------------|
Eb-------------------------------------------------|

eb-------------------------------------------------|
Bb-5-----5-----5-----5-----5-----5-----5-----5-----|
Gb----4-----4-----4-----4-----4-----4-----4--------|
Db-------------------------------------------------|
Ab-------------------------------------------------|
Eb-------------------------------------------------|

eb-------------------------------------------------|
Bb-5-----5-----5-----5-----2-----2-----2-----2-----|
Gb----4-----4-----4-----4-----2-----2-----2-----2--|
Db-------------------------------------------------|
Ab-------------------------------------------------|
Eb-------------------------------------------------|

Rhythm Guitar

eb-/---------------------------------------------------------------------|
Bb-/---------------------------------------------------------------------|
Gb-/--999999999999999-444444444444444-666666666666666666-----------------|
Db-/--999999999999999-444444444444444-666666666666666666-7777-777777777--| x2
Ab-/--777777777777777-222222222222222-444444444444444444-7777-777777777--|
Eb-/--000000000000000------------------------------------5555-555555555--|

Pre-Chorus:

Rhythm and Lead Guitar
eb---------------------|
Bb-------=-------------|
Gb---------------------|
Db----999999999999999--|
Ab----999999999999999--|
Eb----777777777777777--|
   Without Me........ Stop...

Chorus:

Rhythm and Lead Guitar
eb------------------------------------------------------------|
Bb------------------------------------------------------------|
Gb--99999--44444--66666---------99999--44444--66666-----------| (x2)
Db--99999--44444--66666--77777--99999--44444--66666--7-7-7-77-|
Ab--77777--22222--44444--77777--77777--22222--44444--7-7-7-77-|
Eb--00000----------------55555--00000----------------5-5-5-55-|

Breakdown: (this bit you may need to work on a bit!)

Rhythm and Lead Guitar
eb---------------------------------------|
Bb---------------------------------------|
Gb---------------------------------------|
Db-------11~--------9~------7~-------7~--|
Ab----11~--------9~-------7~-------7~----|
Eb--9~---------7~-------5~-------5~------|

eb---------------------------------------|
Bb---------------------------------------|
Gb---------------------------------------|
Db-------11~--------9~------7~-------7~--|
Ab----11~--------9~-------7~-------7~----|
Eb--9~---------7~-------5~-------5~------|

      Palm-muted = x, no x = release
eb-----------------------------------------|
Bb-----------------------------------------|
Gb-----------------------------------------|
Db--11-11-11-11-11-11-11-11-11-11-11-11-11-|
Ab--11-11-11-11-11-11-11-11-11-11-11-11-11-|
Eb--9--9--9--9--9--9--9--9--9--9--9--9--9--|
    x  x  x  x     x  x  x  x     x  x

eb----------------------------|
Bb----------------------------|
Gb----------------------------|
Db--9-9-9-9-9-9-9-9-9-9-9-9-9-|
Ab--9-9-9-9-9-9-9-9-9-9-9-9-9-|
Eb--7-7-7-7-7-7-7-7-7-7-7-7-7-|
    x x x x   x x x x   x x

eb----------------------------|
Bb----------------------------|
Gb----------------------------|
Db--7-7-7-7-7-7-7-7-7-7-7-7-7-|
Ab--7-7-7-7-7-7-7-7-7-7-7-7-7-|
Eb--5-5-5-5-5-5-5-5-5-5-5-5-5-|
    x x x x   x x x x   x x

eb----------------------------|
Bb----------------------------|
Gb----------------------------|
Db--7-7-7-7-7-7-7-7-7-7-7-7-7-|
Ab--7-7-7-7-7-7-7-7-7-7-7-7-7-|
Eb--5-5-5-5-5-5-5-5-5-5-5-5-5-|
    x x x x   x x x x   x x

eb-----------------------------------------|
Bb-----------------------------------------|
Gb-----------------------------------------|
Db--11-11-11-11-11-11-11-11-11-11-11-11-11-|
Ab--11-11-11-11-11-11-11-11-11-11-11-11-11-|
Eb--9--9--9--9--9--9--9--9--9--9--9--9--9--|
    x  x  x  x     x  x  x  x     x  x

eb----------------------------|
Bb----------------------------|
Gb----------------------------|
Db--9-9-9-9-9-9-9-9-9-9-9-9-9-|
Ab--9-9-9-9-9-9-9-9-9-9-9-9-9-|
Eb--7-7-7-7-7-7-7-7-7-7-7-7-7-|
    x x x x   x x x x   x x

eb----------------------------|
Bb----------------------------|
Gb----------------------------|
Db--7-7-7-7-7-7-7-7-7-7-7-7-7-|
Ab--7-7-7-7-7-7-7-7-7-7-7-7-7-|
Eb--5-5-5-5-5-5-5-5-5-5-5-5-5-|
    x x x x   x x x x   x x

eb----------------------------|
Bb----------------------------|
Gb----------------------------|
Db--7-7-7-7-7-7-7-7-7-7-7-7-7-|
Ab--7-7-7-7-7-7-7-7-7-7-7-7-7-|
Eb--5-5-5-5-5-5-5-5-5-5-5-5-5-|
    x x x x   x x x x   x x
Pre-Solo:

Rhythm Guitar
eb----------------------------|
Bb----------------------------|
Gb----------------------------|
Db--9-9-9-9-9-9-9-9-9-9-9-9-9-|
Ab--9-9-9-9-9-9-9-9-9-9-9-9-9-|
Eb--7-7-7-7-7-7-7-7-7-7-7-7-7-|
    x x x x x x v v

Lead Guitar
eb-----------------16/17-17-17/19-19---|
Bb--16/17-17-17/19---------------------|
Gb-------------------------------------|
Db-------------------------------------|
Ab-------------------------------------|
Eb-------------------------------------|

Solo: Now here i cant really understand the middle bit so i will show you my 
interpretation... it would be best to come up with your own me-thinks!!

Rhythm Guitar
eb-/---------------------------------------------------------------------|
Bb-/---------------------------------------------------------------------|
Gb-/--999999999999999-444444444444444-666666666666666666-----------------|
Db-/--999999999999999-444444444444444-666666666666666666-7777-777777777--| x2
Ab-/--777777777777777-222222222222222-444444444444444444-7777-777777777--|
Eb-/--000000000000000------------------------------------5555-555555555--|

Lead Guitar
eb----^19---17-16-17--^19----17-16-------|
Bb---------------------------------19-17-|
Gb---------------------------------------|
Db---------------------------------------|
Ab---------------------------------------|
Eb---------------------------------------|

(Tremolo and Hammered with half Palm mute)
eb---------------------------------------------------------16-17-19---|
Bb------------------------------------------------16-17-19------------|
Gb---------------------------------14-16-18-16-18---------------------|
Db-----------------14-16-18-16--18------------------------------------|
Ab--14-16-18-16-18----------------------------------------------------|
Eb--------------------------------------------------------------------|

eb------------|
Bb--19^--19^--| Make it up.... i dunno really + getting quite tired!
Gb------------|
Db------------|
Ab------------|
Eb------------|

eb--19'16-16---17'16-16---19'16-16---17'16-16--19-17-16----16-----------|
Bb------------------------------------------------------19----17--------|
Gb---------------------------------------------------------------16~----|
Db----------------------------------------------------------------------|
Ab----------------------------------------------------------------------|
Eb----------------------------------------------------------------------|

Pre-Chorus:

Rhythm Guitar
eb---------------------|
Bb-------=-------------|
Gb---------------------|
Db----999999999999999--|
Ab----999999999999999--|
Eb----777777777777777--|
   Yeahhhhhh........ Stop...

Chorus:

Rhythm And Lead Guitar
eb-------------------------------------------|
Bb-------------------------------------------|
Gb--9\------------------------66666----------|
Db--9\------------------------66666--77777---|
Ab--7\------------------------44444--77777---|
Eb--0\-------------------------------55555---|
  Callin, your not allowed to...

eb------------------------------------------------------------|
Bb------------------------------------------------------------|
Gb--99999--44444--66666---------99999--44444--66666-----------|
Db--99999--44444--66666--77777--99999--44444--66666--7-7-7-77-|
Ab--77777--22222--44444--77777--77777--22222--44444--7-7-7-77-|
Eb--00000----------------55555--00000----------------5-5-5-55-|

eb------------------------------------------------------------|
Bb------------------------------------------------------------|
Gb--99999--44444--66666---------99999--44444--66666-----------|
Db--99999--44444--66666--77777--99999--44444--66666--7-7-7-77-|
Ab--77777--22222--44444--77777--77777--22222--44444--7-7-7-77-|
Eb--00000----------------55555--00000----------------5-5-5-55-|

eb------------------------------------------------------------|
Bb------------------------------------------------------------|
Gb--99999--44444--66666---------99999--44444--66666-----------|
Db--99999--44444--66666--77777--99999--44444--66666--7-7-7-77-|
Ab--77777--22222--44444--77777--77777--22222--44444--7-7-7-77-| (Hold)
Eb--00000----------------55555--00000----------------5-5-5-55-|

eb-------------------------------------0~
Bb-------------------------------------0~
Gb--99999--44444--66666----------------0~
Db--99999--44444--66666--7-7-7-77~-----0~      END!
Ab--77777--22222--44444--7-7-7-77~-----0~
Eb--00000----------------5-5-5-55~-----0~


If you want to spend your time trying to work ot what the lead is playing the whole 
time, go ahead, because it is tricky to get a hold of and the earth doesnt have enough paper 
for me to tab it all!!
Cheers guys it has been an experience, Please rate highly, i hope you found it useful!! x

www.myspace.com/britishbeef
Tap to rate this tab
 
# A B C D E F G H I J K L M N O P Q R S T U V W X Y Z