Guitaretab - guitar tabs
Song name
# A B C D E F G H I J K L M N O P Q R S T U V W X Y Z

British India - You Will Die And I Will Take Over tab

Hey. This is off British India's new album, "Thieves" This riff is used through out the 
and i think it is on bass, but this is what i figured out.Enjoy :)

Tuning: Standerd
[ Tab from: http://www.guitaretab.com/b/british-india/111801.html ]
e|-----------------------------------------------------------------------------|
B|-----------------------------------------------------------------------------|
G|-----------------------------------------------------------------------------|
D|-----------------------------------------------------------------------------|
A|-----------------------------------------------------------------------------|
E|-----4--4444-44--11b---------------------------------------------------------|
    This is continued for the intro.


e|-----------------------------------------------------------------------------|
B|-----------------------------------------------------------------------------|
G|-----------------------------------------------------------------------------|
D|---6----6666-66--------------------------------------------------------------|
A|---6----6666-66--------------------------------------------------------------|
E|---4----4444-44--11b---------------------------------------------------------|

This is right at the end of the song (the last heavy part)


Any suggestions, email me at jakerush195@hotmail.com.
Related for You Will Die And I Will Take Over tab
×
Best way to learn
"You Will Die And I Will Take Over"