Guitaretab - guitar tabs
Song name
# A B C D E F G H I J K L M N O P Q R S T U V W X Y Z

British India - I Said Im Sorry tab

-------------------------------------------------------------------------------
			 'I said I'm sorry,' British India
-------------------------------------------------------------------------------
Tabbed by:dez15
Email:vo_debra@hotmail.com

Tuning:Standard


Verses 
e|----4----------0-----------------------------------------------------------|
B|----5----------0-----------------------------------------------------------|
G|----6----------2-----------------------------------------------------------|
D|----6----------2-----------------------------------------------------------|
A|----4----------0-----------------------------------------------------------|
E|---------------------------------------------------------------------------|


Chorus 
e|---4-----------0-----------------------------------------------------------|
B|---5-----------0-----------------------------------------------------------|
G|---6-----------2-----------------------------------------------------------|
D|---6-----------2------x4---------------------------------------------------|
A|---4-----------0-----------------------------------------------------------|
E|---------------------------------------------------------------------------|

[ Tab from: http://www.guitaretab.com/b/british-india/112279.html ]
e|---------------------------------------------------------------------------|
B|---7------5------7------5-------7------------------------------------------|
G|---8------6------8------6-------8------------------------------------------|
D|---9------7------9------7-------9------------------------------------------|
A|---9------7------9------7-------9------------------------------------------|
E|---7------5------7------5-------7------------------------------------------|


Solo 
e|---4--------0--------4--------0--------------------------------------------|
B|---5--------0--------5--------0--------------------------------------------|
G|---6--------2--------6--------2--------------------------------------------|
D|---6--------2--------6--------2--------------------------------------------|
A|---4--------0--------4--------0--------------------------------------------|
E|---------------------------------------------------------------------------|


Order:

Verse (0.00-1.15)
Chorus (1.15-2.00)
Solo (2.00-2.19)
Verse (2.19-2.49)
Chorus (2.49-3.28)



| /  slide up
| \  slide down
| h  hammer-on
| p  pull-off
| ~  vibrato
| +  harmonic
| x  Mute note
===============================================================================
Related for I Said Im Sorry tab
I Said Im Sorry chords by British India