Song name
# A B C D E F G H I J K L M N O P Q R S T U V W X Y Z

British India - Tie Up My Hands tab

                        TIE UP MY HANDS - BRITISH INDIA
Tabbed by: Nick
Email:stillman55@hotmail.com

Tuning:Normal
Intro:

    A C#m E                A C#m E
e|-------------------------------------------------------------------------|
B|-------------------------------------------------------------------------|
G|--2--6--9----------------2--6--------------------------------------------|
D|--2--6--9-----(once-then)2--6--2-----(once)------------------------------|
A|--0--4--7----------------0--4--2-----------------------------------------|
E|-------------------------------0-----------------------------------------|

Verse:


      C#m   B
e|---------------------------------------------------------------------------|
B|---------------------------------------------------------------------------|
G|----6------4---------------------------------------------------------------|
D|----6------4---------------------------------------------------------------|
A|----4------2---------------------------------------------------------------|
E|---------------------------------------------------------------------------|

JUST STRUM THIS SOFTLY THROUGHOUT THE VERSE AND END IT BY SCRATCHING THE STRINGS
GOING INTO THE....


Pre-Chorus:

Lead:

e|-------------------------------------------------------------------------|
B|---14-14-14-14-13-13-13-13-11-11-11-11-9-9-9-9---------------------------|
G|-------------------------------------------------------------------------|
D|-------------------------------------------------------------------------|
A|-------------------------------------------------------------------------|
E|-------------------------------------------------------------------------|

Rythm:


e|-------------------------------------------------------------------------|
B|-------------------------------------------------------------------------|
G|-----------7-------------------------------------------------------------|
D|-----------7-------------------------------------------------------------|
A|-----------5-------------------------------------------------------------|
E|-------------------------------------------------------------------------|

Chorus: Both guitars i think...

e|-------------------------------------------------------------------------|
B|-------------------------------------------------------------------------|
G|---2--6--9---------------------------------------------------------------|
D|---2--6--9---------------------------------------------------------------|
A|---0--4--7---------------------------------------------------------------|
E|-------------------------------------------------------------------------|

 Then back to Intro/Chorus with the solo over the top.


 There is a break with vocals only then to the:

 ( " I swear, i swear, i swear that I'd seen her...")

   This has just the chorus guitar over it.


 Then a different pre-chorus bit:

 Lead:


e|-------------------------------------------------------------------------|
B|-------------------------------------------------------------------------|
G|-4-4-4-4-6-6-6-6-7-7-7-7-9-9-9-9-11-11-11-11-13-13-13-13-14-14-14-14-18h-|
D|-------------------------------------------------------------------------|
A|-------------------------------------------------------------------------|
E|-------------------------------------------------------------------------|


Rythm:

e|-------------------------------------------------------------------------|
B|-------------------------------------------------------------------------|
G|--------7----------------------------------------------------------------|
D|--------7----------------------------------------------------------------|
A|--------5----------------------------------------------------------------|
E|-------------------------------------------------------------------------|

Chorus then outro:

e|-------------------------------------------------------------------------|
B|-------------------------------------------------------------------------|
G|--999999999999999999999--2-----------------------------------------------|
D|--999999999999999999999--2-----------------------------------------------|
A|--777777777777777777777--0-----------------------------------------------|
E|-------------------------------------------------------------------------|

 Ring Out....


| /  slide up
| \  slide down
| h  hammer-on
| p  pull-off
| ~  vibrato
| +  harmonic
| x  Mute note
===============================================================================
Tap to rate this tab
 
# A B C D E F G H I J K L M N O P Q R S T U V W X Y Z