Song name
# A B C D E F G H I J K L M N O P Q R S T U V W X Y Z

British India - Golden Years tab

Intro
e|-----------------|
b|-----------------|
g|-7-7-7-7-7-7-7---|
d|---------------5-|x7
a|-----------------|
e|-----------------|

Still trying to figure out the other guitar

Verse

e|-----------------|   e|----------------|
b|-----------------|   b|8-8-8-8-8-8-----|
g|-7-7-7-7-7-7-7---|   g|------------7---|
d|---------------5-|x3 d|--------------5-|x1
a|-----------------|   a|----------------|
e|-----------------|   e|----------------|

I am stillw working on it i will update it when i figure any more out
Tap to rate this tab
 
# A B C D E F G H I J K L M N O P Q R S T U V W X Y Z