Song name
# A B C D E F G H I J K L M N O P Q R S T U V W X Y Z

British India - Sitcom Actress tab

hello world
I wrote this tab it myself but I do not know the words
can anyone send them to me ?
anyway you can find the song on youtube

INTRO:


Bmin
e---------------------------------------------------------------------------|
B-------3---------3---------3---------3-------------------------------------|
G-----4---------4----------4---------4--------------------------------------|
D---------------------------------------------------------------------------|
A---2---------2-----------2---------2---------------------------------------|
E---------------------------------------------------------------------------|

VERSE:

Declan starts to sing

e---------------------------------------------------------------------------|
B-------3---------3---------3---------3-------------------------------------|
G-----4---------4----------4---------4--------------------------------------|
D---------------------------------------------------------------------------|
A---2---------2-----------2---------2---------------------------------------|
E---------------------------------------------------------------------------|

e---------------------------------------------------------------------------|
B-------3---------3---------3---------3-------------------------------------|
G-----4---------4----------4---------4--------------------------------------|
D---------------------------------------------------------------------------|
A---0---------0-----------0---------0---------------------------------------|
E---------------------------------------------------------------------------|

e---------------------------------------------------------------------------|
B-------3---------3---------3---------3-------------------------------------|
G-----4---------4----------4---------4--------------------------------------|
D---------------------------------------------------------------------------|
A------------------------0---------0----------------------------------------|
E----3--------3-------------------------------------------------------------|

e---------------------------------------------------------------------------|
B-------3---------3---------3---------3-------------------------------------|
G-----4---------4----------4---------4--------------------------------------|
D---------------------------------------------------------------------------|
A---2---------2-----------2---------2---------------------------------------|
E---------------------------------------------------------------------------|

e---------------------------------------------------------------------------|
B-------3---------3---------3---------3-------------------------------------|
G-----4---------4----------4---------4--------------------------------------|
D---------------------------------------------------------------------------|
A---2---------2-----------2---------2---------------------------------------|
E---------------------------------------------------------------------------|

e---------------------------------------------------------------------------|
B-------3---------3---------3---------3-------------------------------------|
G-----4---------4----------4---------4--------------------------------------|
D---------------------------------------------------------------------------|
A---0---------0-----------0---------0---------------------------------------|
E---------------------------------------------------------------------------|

e---------------------------------------------------------------------------|
B-------3---------3---------3---------3-------------------------------------|
G-----4---------4----------4---------4--------------------------------------|
D---------------------------------------------------------------------------|
A------------------------0---------0----------------------------------------|
E----3--------3-------------------------------------------------------------|

e---------------------------------------------------------------------------|
B-------3---------3---------3---------3-------------------------------------|
G-----4---------4----------4---------4--------------------------------------|
D---------------------------------------------------------------------------|
A---2---------2-----------2---------2---------------------------------------|
E---------------------------------------------------------------------------|

CHORUS:

e----------------------------------------------------------------------------|
B-------3---------3---------3---------3---------3--------3--------3--------3-|
G-----4---------4----------4---------4---------2--------2--------2--------2--|
D---------------------------------------------0--------0--------0--------0---|
A---2---------2-----------2---------2----------------------------------------|
E----------------------------------------------------------------------------|

e----------------------------------------------------------------------------|
B-------3---------3---------3---------3---------3--------3--------3--------3-|
G-----4---------4----------4---------4---------2--------2--------2--------2--|
D---------------------------------------------0--------0--------0--------0---|
A---2---------2-----------2---------2----------------------------------------|
E----------------------------------------------------------------------------|

e----------------------------------------------------------------------------|
B-------3---------3---------3---------3---------3--------3--------3--------3-|
G-----4---------4----------4---------4---------2--------2--------2--------2--|
D---------------------------------------------0--------0--------0--------0---|
A---2---------2-----------2---------2----------------------------------------|
E----------------------------------------------------------------------------|

           G                     Emin                    Bmin
e  ----3------------0---------2----------------------------------------------|
B  ----0------------0---------3----------------------------------------------|
G  ----0------------0---------4----------------------------------------------|
D  ----0------------2---------4----------------------------------------------|
A  ----2------------2---------2----------------------------------------------|
E  ----3------------0--------------------------------------------------------|

Back again on the verse

e---------------------------------------------------------------------------|
B-------3---------3---------3---------3-------------------------------------|
G-----4---------4----------4---------4--------------------------------------|
D---------------------------------------------------------------------------|
A---2---------2-----------2---------2---------------------------------------|
E---------------------------------------------------------------------------|

e---------------------------------------------------------------------------|
B-------3---------3---------3---------3-------------------------------------|
G-----4---------4----------4---------4--------------------------------------|
D---------------------------------------------------------------------------|
A---0---------0-----------0---------0---------------------------------------|
E---------------------------------------------------------------------------|

e---------------------------------------------------------------------------|
B-------3---------3---------3---------3-------------------------------------|
G-----4---------4----------4---------4--------------------------------------|
D---------------------------------------------------------------------------|
A------------------------0---------0----------------------------------------|
E----3--------3-------------------------------------------------------------|

e---------------------------------------------------------------------------|
B-------3---------3---------3---------3-------------------------------------|
G-----4---------4----------4---------4--------------------------------------|
D---------------------------------------------------------------------------|
A---2---------2-----------2---------2---------------------------------------|
E---------------------------------------------------------------------------|

e---------------------------------------------------------------------------|
B-------3---------3---------3---------3-------------------------------------|
G-----4---------4----------4---------4--------------------------------------|
D---------------------------------------------------------------------------|
A---2---------2-----------2---------2---------------------------------------|
E---------------------------------------------------------------------------|

e---------------------------------------------------------------------------|
B-------3---------3---------3---------3-------------------------------------|
G-----4---------4----------4---------4--------------------------------------|
D---------------------------------------------------------------------------|
A---0---------0-----------0---------0---------------------------------------|
E---------------------------------------------------------------------------|

e---------------------------------------------------------------------------|
B-------3---------3---------3---------3-------------------------------------|
G-----4---------4----------4---------4--------------------------------------|
D---------------------------------------------------------------------------|
A------------------------0---------0----------------------------------------|
E----3--------3-------------------------------------------------------------|

e---------------------------------------------------------------------------|
B-------3---------3---------3---------3-------------------------------------|
G-----4---------4----------4---------4--------------------------------------|
D---------------------------------------------------------------------------|
A---2---------2-----------2---------2---------------------------------------|
E---------------------------------------------------------------------------|

CHORUS:

Now play chords

Bmin                                         D

  |         |         |        |                 |         |         |         |

Bmin                                         D

  |         |         |        |                 |         |         |         |

Bmin                                         D

  |         |         |        |                 |         |         |         |

G       Emin     Bmin

  |         |         |        |                 |         |         |         |

Now play verse without words

e---------------------------------------------------------------------------|
B-------3---------3---------3---------3-------------------------------------|
G-----4---------4----------4---------4--------------------------------------|
D---------------------------------------------------------------------------|
A---2---------2-----------2---------2---------------------------------------|
E---------------------------------------------------------------------------|

e---------------------------------------------------------------------------|
B-------3---------3---------3---------3-------------------------------------|
G-----4---------4----------4---------4--------------------------------------|
D---------------------------------------------------------------------------|
A---0---------0-----------0---------0---------------------------------------|
E---------------------------------------------------------------------------|

e---------------------------------------------------------------------------|
B-------3---------3---------3---------3-------------------------------------|
G-----4---------4----------4---------4--------------------------------------|
D---------------------------------------------------------------------------|
A------------------------0---------0----------------------------------------|
E----3--------3-------------------------------------------------------------|

e---------------------------------------------------------------------------|
B-------3---------3---------3---------3-------------------------------------|
G-----4---------4----------4---------4--------------------------------------|
D---------------------------------------------------------------------------|
A---2---------2-----------2---------2---------------------------------------|
E---------------------------------------------------------------------------|

and chorus again

Bmin                                         D

  |         |         |        |                 |         |         |         |

Bmin                                         D

  |         |         |        |                 |         |         |         |

Bmin                                         D

  |         |         |        |                 |         |         |         |

G       Emin     Bmin

  |         |         |        |                 |         |         |         |

end on Bmin

Comments?

My e-mail address is declanmelia94@gmail.com
Tap to rate this tab
# A B C D E F G H I J K L M N O P Q R S T U V W X Y Z