Song name
# A B C D E F G H I J K L M N O P Q R S T U V W X Y Z

British India - Mona Lisa Overdrive tab

MONA LISA OVERDRIVE
BY BRITISH INDIA
TUNING: DROP C#
awesome song, Have fun!(this is my first tab)


Guitar 1(Strumming not shown):

|-----------------------------------------------------------|
|-----------------------------------------------------------|
|----------------------------(Play as many times as needed)-|
|-----------------------44----------------------------------|
|--22222--44444--55555--00542-------------------------------|
|--00000--00000--00000--00000-------------------------------|

Guitar 2:

|-----14-----------|-----14------------------------------|
|--------15-14-----|--------15-14-15---------------------|
|--14----------14--|--14--------------(Play when needed)-|
|------------------|-------------------------------------|
|------------------|-------------------------------------|
|------------------|-------------------------------------|


Guitar 1(Pre-Chorus/Chorus)

|----------------------------------------------------------|
|----------------------------------------------------------|
|-(Strumming not shown, just play around with these notes)-|
|--3--5--7-------------------------------------------------|
|--1--3--5-------------------------------------------------|
|----------------------------------------------------------|


Still working on the solo and bridge, Ill post it when im done. GOOD LUCK.

Please Leave Comment, THNX.


Tap to rate this tab
 
# A B C D E F G H I J K L M N O P Q R S T U V W X Y Z