Song name
# A B C D E F G H I J K L M N O P Q R S T U V W X Y Z

British Sea Power - Lights Out For Darker Skies tab

Band: British Sea Power
Song: Lights Out For Darker Skies

Intro:

e:---------------------------------------------------------------------|
B:---------------------------------------------------------------------|
G:-11-12-14-----11-12-14----14-12-11----14-12-11-----------------------|
D:-11-12-14-----11-12-14----14-12-11----14-12-11-----------------------|
A:-9--10-12-----9--10-12----12-10-9-----12-10-9------------------------|
E:---------------------------------------------------------------------|

e:-5-5--------------------------5-5------------------------------------|
B:-----7-7-5-5-7------7-7-5-5-7-----7-7-5-5-7-----7-7-5-5-7------------|
G:---------------7-7--------------------------7-7----------------------|
D:---------------------------------------------------------------------|
A:---------------------------------------------------------------------|
E:---------------------------------------------------------------------|

e:---------------------------------------------------------------------|
B:-5-5---------7-5-5---------7-5-5---------7-5-5-----------------------|
G:-----7-7-4-4-------7-7-4-4-------7-7-4-4-------7-7-4-4---------------|
D:---------------------------------------------------------------------|
A:---------------------------------------------------------------------|
E:---------------------------------------------------------------------|

e:-2-3-5-5-3-3-2-2-----2-2-----2-2-------------2-2-------------2-2-----|
B:-----------------3-3-----3-3-----3-3-----3-3-----3-3-----3-3---------|
G:-------------------------------------4-4-------------2-2-------------|
D:---------------------------------------------------------------------|
A:---------------------------------------------------------------------|
E:---------------------------------------------------------------------|

e:-2-3-5-5-3-3-2-2-----2-2-----2-2-------------2-2---------3-3-2-2-----|
B:-----------------3-3-----3-3-----3-3-----3-3-----3-3-----------------|
G:-------------------------------------4-4-------------2-2-------------|
D:---------------------------------------------------------------------|
A:---------------------------------------------------------------------|
E:---------------------------------------------------------------------|

E:-2-3-5-5-3-3-2-2-----2-2-----2-2-------------2-2---------3-3-2-2-----|
B:-----------------3-3-----3-3-----3-3-----3-3-----3-3-----------------|
G:-------------------------------------4-4-------------2-2-------------|
D:---------------------------------------------------------------------|
A:---------------------------------------------------------------------|
E:---------------------------------------------------------------------|

E:-2-3-5-5-3-3-2-2-----2-2-----2-2-------------2-2---------3-3-2-2-----|
B:-----------------3-3-----3-3-----3-3-----3-3-----3-3-----------------|
G:-------------------------------------4-4-------------2-2-------------|
D:---------------------------------------------------------------------|
A:---------------------------------------------------------------------|
E:---------------------------------------------------------------------|

e:-2-3-2~~~~--|
B:------------|
G:------------|
D:------------|
A:------------|
E:------------|
Tap to rate this tab
 
# A B C D E F G H I J K L M N O P Q R S T U V W X Y Z