British Sea Power - No Need To Cry tab

Author: N Shepherd
Email: nik_shep@hotmail.com

Capo fret 1 
+ tune all strings down 1/4 step (bit weird i know!)

Intro + verse
------------------------------------------------------------

e|--------------|
B|-----0-----0--|
G|--------2-----|
D|--------------| x4
A|--------------|
E|-3------------|

e|--------------|
B|-----0-----0--|
G|--------2-----|
D|--------------| x4
A|--------------|
E|-0------------|

Chorus
------------------------------------------------------------
e|--------------|
B|-----3--0--3--|
G|--------------|
D|--------------| x2
A|-3------------|
E|--------------|

e|--------------|
B|-----3--0--3--|
G|--------------|
D|--------------| x2
A|-0------------|
E|--------------|

e|--------------|
B|-----3--0--3--|
G|--------------|
D|--------------| x2
A|--------------|
E|-0------------|

e|--------------|
B|-----0-----0--|
G|--------2-----|
D|--------------| 
A|--------------|
E|-3------------|

Outro (violin bit played over chords)
------------------------------------------------------------

e|-----------------------------|
B|-----------------------------|
G|-----------------------------|
D|----5--5--5--5--4--0-------2-|
A|-----------------------------|
E|-3-------------------------0-|



Verse
------------------------------------------------------------
Em    		G	
When it's good, it's not bad
Em	       	
When it's bad, 

Chorus
------------------------------------------------------------
C                      Am
I don't mind if you're queer,
Em				G
Let's be happy while we're here.

Verse
------------------------------------------------------------
G			
I don't clap, I don't cheer
Em			
I don't look, I don't hear.
G					
It's alright I don't mind that you're here.
Em
It's alright.

Chorus
------------------------------------------------------------
C		Am
I sit up, sip my tears,
Em			G
As they're falling down in my beer.

Verse
------------------------------------------------------------
G		  Em
No need to cry at all,
G			  Em
There's no need to cry at all.

Chorus
------------------------------------------------------------
C	       Am
Play the game, cup your ears.
Em			D
Let's be happy while we're here.

Outro
------------------------------------------------------------
G					Em			
Coming, coming coming out of your eye, I don't mind.
G					Em
Coming, coming coming out of your eye, I don't mind.

G
No need to cry at all,
No need to cry at all,
Em
There's no need to cry at all.
No need to cry at all,

G						Em
Coming, coming coming out of your eye, I don't mind.
G						Em
Coming, coming coming out of your eye, I don't mind.
No need to cry at all,
No need to cry at all. 
Tap to rate this tab
 
# A B C D E F G H I J K L M N O P Q R S T U V W X Y Z