Song name
# A B C D E F G H I J K L M N O P Q R S T U V W X Y Z

British Sea Power - North Hanging Rock tab

-----------------------------------------------------------------------------
     NORTH HANGING ROCK - British Sea Power
-----------------------------------------------------------------------------
Tabbed by: Joey Mee
Email:

Tuning: Standard

e: -----------------------------------------|
B: ------3-------2---------0-------0--------|
G: ----2---2---2---2-2---2---2---2---2-2----|
D: --0-------0------0--0-------0------0-----|
A: -----------------------------------------|
E: -----------------------------------------|

e: -----------------------------------------|
B: -----------------------------------------|
G: ------0----------------0-----------------|
D: ----0---0---0-4-4----0---0---0-40-0------|
A: --2-------2----5-5-2-------2-----2-------|
E: -----------------------------------------|


=============================================================================
Tap to rate this tab
 
# A B C D E F G H I J K L M N O P Q R S T U V W X Y Z