Guitaretab - guitar tabs
Song name
# A B C D E F G H I J K L M N O P Q R S T U V W X Y Z

British Sea Power - Childhood Memories tab

Great song by a great band.

Main Riff:

e|---------------------------------------------------------------------------|
B|--------------------------7b-----------------------------------------------|
G|-------6---4----6p4--------------6-----4-----------------------------------|
D|---------------------------------------------------------------------------|
A|---------------------------------------------------------------------------|
E|---------------------------------------------------------------------------|


Chords:
[ Tab from: http://www.guitaretab.com/b/british-sea-power/63474.html ]
e|--0-----------0------------------------------0----------------------------|
B|--2-----------2------------------------------2----------------------------|
G|--2-----------2------------------------------2----------------------------|
D|--2-----------1------------------------------0----------------------------|
A|--0-----------0------------------------------0----------------------------|
E|--x-----------x------------------------------x----------------------------|

    A          Adim (not sure on the name)     Asus4



First line/Chorus:


A     Adim      Asus4


Verses:

Asus4      D       A




I think there might be a few variations in the verses, but it sounds fine to  me.
Related for Childhood Memories tab
Childhood Memories chords by British Sea Power