Song name
# A B C D E F G H I J K L M N O P Q R S T U V W X Y Z

Britney Spears - I Love Rock And Roll tab

OK this is my first ever tab so sorry if its wrong. im working out the rest of the song 
will add it soon ^^ email me if u have anything to say...gd or bad... wonderwoman01@hotmail.co.uk


E---------------------------------------------------------------|
B---------------------------------------------------------------|
G---------------------------------------------------------------|
D-2-2--5--2-2--5--7-7--9-9---2-2--5--2-2--5--7-7--9-9--2-2--2-2-|
A---------------------------------------------------------------|
E---------------------------------------------------------------|

E--------------------------|
B--------------------------|
G--------------------------|
D-14-12--------------------|
A-------14-12-10-----------|
E--------------------------|


If you wana do it this way it works just the same. i guess it all depends on how u like to play...

E----------------------------------------------------------------|
B----------------------------------------------------------------|
G------0-------0--2-2--4-4-------0-------0--2-2--4-4-------------|
D-2-2-----2-2---------------2-2-----2-2---------------2-2----2-2-|
A----------------------------------------------------------------|
E----------------------------------------------------------------|

E-0------------|
B---3-0--------|
G--------------|
D--------2--0--|
A--------------|
E--------------|


HOPE ITS ALL GD!!!!!

Lili x x x x x
Tap to rate this tab
 
# A B C D E F G H I J K L M N O P Q R S T U V W X Y Z