Song name
# A B C D E F G H I J K L M N O P Q R S T U V W X Y Z

Britney Spears - Everytime tab

Britney Spears - Everytime

The tabs brought to you by Raphael Barel. ENJOY...
--------------------------------------------------------------------------






h = hammer on
p = pull off


CAPO 3*

*Please note that tha capo is very important in this song. Without a capo it will 
sound less impressive.



E-----------0---------------------|----------0------------------------|
B---------1---1--3--------3-------|--------1----1--0---0h1h0----------|
G-------0-----------0---0---0---0-|------0-------------------2--------|
D-----2---------------0-------0---|----2-----------------------2---2--|
A---3-----------------------------|--3-------------0-------------0----|
E----------------3----------------|-----------------------------------|



E-----------0---------------------|----------0------------------------|
B---------1---1--3--------3-------|--------1----1--0---0h1h0----------|
G-------0-----------0---0---0---0-|------0-------------------2--------|
D-----2---------------0-------0---|----2-----------------------2---2--|
A---3-----------------------------|--3-------------0-------------0----|
E----------------3----------------|-----------------------------------|



E-----------0---------------------|---------0-------------0--|
B-------------0--1--------1-------|-----------0--1------3----|
G---------0---------0---0---0---0-|-------0---------0--------|
D-------2-------------2-------2---|-----2-------------2------|
A-----2----------3----------------|---2----------3-----------|
E---0-----------------------------|-0------------------------|




Chrous:

E----------0------|---------3------|---------0------|---------0--------|
B--------1---1----|-----------3----|-------1---1----|-----------0------|
G------0-------0--|-------0-----0--|-----2-------2--|-------0-----0----|
D----2-----------2|-----0---------0|---2-----------2|-----2---------2--|
A--3--------------|---2------------|-0--------------|---2--------------|
E-----------------|-3--------------|----------------|-0----------------|



E----------1------|---------1--------|
B------------1----|-----3-----3---3--|
G--------3-----3--|---2---2-----2----|
D------2---------2|-0----------------|
A----2------------|------------------|
E--1--------------|------------------|



E----------0------|---------3------|---------0------|---------0--------|
B--------1---1----|-----------3----|-------1---1----|-----------0------|
G------0-------0--|-------0-----0--|-----2-------2--|-------0-----0----|
D----2-----------2|-----0---------0|---2-----------2|-----2---------2--|
A--3--------------|---2------------|-0--------------|---2--------------|
E-----------------|-3--------------|----------------|-0----------------|



E----------1------|---------1--------|
B------------1----|-----3-----3---3--|
G--------3-----3--|---2---2-----2----|
D------2---------2|-0----------------|
A----2------------|------------------|
E--1--------------|------------------|




And again:

E-----------0---------3p0---------|----------0------------------------|
B---------1---1--3----------------|--------1----1--0---0h1h0----------|
G-------0-------------------------|------0-------------------2--------|
D-----2---------------------------|----2-----------------------2---2--|
A---3-----------------------------|--3-------------0-------------0----|
E----------------3----------------|-----------------------------------|



E-----------0---------------------|----------0------------------------|
B---------1---1--3--------3-------|--------1----1--0---0h1h0----------|
G-------0-----------0---0---0---0-|------0-------------------2--------|
D-----2---------------0-------0---|----2-----------------------2---2--|
A---3-----------------------------|--3-------------0-------------0----|
E----------------3----------------|-----------------------------------|



E-----------0---------------------|---------0-------------0--|
B-------------0--1--------1-------|-----------0--1------3----|
G---------0---------0---0---0---0-|-------0---------0--------|
D-------2-------------2-------2---|-----2-------------2------|
A-----2----------3----------------|---2----------3-----------|
E---0-----------------------------|-0------------------------|




Chrous:

E----------0------|---------3------|---------0------|---------0--------|
B--------1---1----|-----------3----|-------1---1----|-----------0------|
G------0-------0--|-------0-----0--|-----2-------2--|-------0-----0----|
D----2-----------2|-----0---------0|---2-----------2|-----2---------2--|
A--3--------------|---2------------|-0--------------|---2--------------|
E-----------------|-3--------------|----------------|-0----------------|



E----------1------|---------1--------|
B------------1----|-----3-----3---3--|
G--------3-----3--|---2---2-----2----|
D------2---------2|-0----------------|
A----2------------|------------------|
E--1--------------|------------------|



E----------0------|---------3------|---------0------|---------0--------|
B--------1---1----|-----------3----|-------1---1----|-----------0------|
G------0-------0--|-------0-----0--|-----2-------2--|-------0-----0----|
D----2-----------2|-----0---------0|---2-----------2|-----2---------2--|
A--3--------------|---2------------|-0--------------|---2--------------|
E-----------------|-3--------------|----------------|-0----------------|



E----------1------|---------1--------|
B------------1----|-----3-----3---3--|
G--------3-----3--|---2---2-----2----|
D------2---------2|-0----------------|
A----2------------|------------------|
E--1--------------|------------------|





Bridge (when she sings "I may have made it rain...")

E---------0------|---------0--------|----------1------|---------1--------|
B-------1---1----|-----------0------|------------1----|-----3-----3---3--|
G-----2-------2--|-------0-----0----|--------3-----3--|---2---2-----2----|
D---2-----------2|-----2---------2--|------2---------2|-0----------------|
A-0--------------|---2--------------|----2------------|------------------|
E----------------|-0----------------|--1--------------|------------------|




E---------0------|---------0--------|----------1------|---------1--------|
B-------1---1----|-----------0------|------------1----|-----3-----3---3--|
G-----2-------2--|-------0-----0----|--------3-----3--|---2---2-----2----|
D---2-----------2|-----2---------2--|------2---------2|-0----------------|
A-0--------------|---2--------------|----2------------|------------------|
E----------------|-0----------------|--1--------------|------------------|



And last time before the ending:

E-----------0---------------------|----------0------------------------|
B---------1---1--3--------3-------|--------1----1--0---0h1h0----------|
G-------0-----------0---0---0---0-|------0-------------------2--------|
D-----2---------------0-------0---|----2-----------------------2---2--|
A---3-----------------------------|--3-------------0-------------0----|
E----------------3----------------|-----------------------------------|



E-----------0---------------------|----------0------------------------|
B---------1---1--3--------3-------|--------1----1--0---0h1h0----------|
G-------0-----------0---0---0---0-|------0-------------------2--------|
D-----2---------------0-------0---|----2-----------------------2---2--|
A---3-----------------------------|--3-------------0-------------0----|
E----------------3----------------|-----------------------------------|



E-----------0---------------------|---------0-------------0--|
B-------------0--1--------1-------|-----------0--1------3----|
G---------0---------0---0---0---0-|-------0---------0--------|
D-------2-------------2-------2---|-----2-------------2------|
A-----2----------3----------------|---2----------3-----------|
E---0-----------------------------|-0------------------------|




Chrous:

E----------0------|---------3------|---------0------|---------0--------|
B--------1---1----|-----------3----|-------1---1----|-----------0------|
G------0-------0--|-------0-----0--|-----2-------2--|-------0-----0----|
D----2-----------2|-----0---------0|---2-----------2|-----2---------2--|
A--3--------------|---2------------|-0--------------|---2--------------|
E-----------------|-3--------------|----------------|-0----------------|



E----------1------|---------1--------|
B------------1----|-----3-----3---3--|
G--------3-----3--|---2---2-----2----|
D------2---------2|-0----------------|
A----2------------|------------------|
E--1--------------|------------------|



E----------0------|---------3------|---------0------|---------0--------|
B--------1---1----|-----------3----|-------1---1----|-----------0------|
G------0-------0--|-------0-----0--|-----2-------2--|-------0-----0----|
D----2-----------2|-----0---------0|---2-----------2|-----2---------2--|
A--3--------------|---2------------|-0--------------|---2--------------|
E-----------------|-3--------------|----------------|-0----------------|



E----------1------|---------1--------|
B------------1----|-----3-----3---3--|
G--------3-----3--|---2---2-----2----|
D------2---------2|-0----------------|
A----2------------|------------------|
E--1--------------|------------------|




The last part (fade away):

E----------0------|---------3------|---------0------|----------1------|
B--------1---1----|-----------3----|-------1---1----|------------1----|
G------0-------0--|-------0-----0--|-----2-------2--|--------3-----3--|
D----2-----------2|-----0---------0|---2-----------2|------2---------2|
A--3--------------|---2------------|-0--------------|----2------------|
E-----------------|-3--------------|----------------|--1--------------|



E----------3------|--------------3-----8--|
B------------3----|----------1-----1------|
G--------0-----0--|------0-----0----------|
D------0---------0|----2---2--------------|
A----2------------|--3--------------------|
E--3--------------|-----------------------|
Tap to rate this tab
# A B C D E F G H I J K L M N O P Q R S T U V W X Y Z