Guitaretab - guitar tabs
Song name
# A B C D E F G H I J K L M N O P Q R S T U V W X Y Z

Britney Spears - Radar tab

-- Britney Spears  Radar --

standard tuning EADGBE

tabbed by x-tasha-x

Intro:
guitar 1
E||---------------------------------|
B||---------------------------------|
G||---------------------------------|x2
D||-13-13---13-13---16-16------13---|
A||-------------------------13------|
E||---------------------------------|

guitar 2
E||-------------------------|
B||-------------------------|
G||-----------5555----------|x2
D||-2222-5555-5555-777/99---|
A||-2222-5555-3333-777/99---|
E||-0000-3333------555/77---|


Verse: 
guitar 1
E||---------------------------------|
B||---------------------------------|
G||---------------------------------|x2
D||-13-13---13-13---16-16------13---|
A||-------------------------13------|
E||---------------------------------|

guitar 2
E||-------------------------|
B||-------------------------|
G||-----------5555----------|x2
D||-2222-5555-5555-777/99---|
A||-2222-5555-3333-777/99---|
E||-0000-3333------555/77---|


Pre chorus:
guitar 1
E||-----------------|
B||-----------------|
G||-----------------|
D||-13-13---13-13---|
A||-----------------|
E||-----------------|


Chorus:
guitar 1
E||---------------------------------|
B||---------------------------------|
G||---------------------------------|x4
D||-13-13---13-13---16-16------13---|
A||-------------------------13------|
E||---------------------------------|

guitar 2
E||-------------------------|
B||-------------------------|
G||-----------5555----------|x4
D||-2222-5555-5555-777/99---|
A||-2222-5555-3333-777/99---|
E||-0000-3333------555/77---|


Before verse 2:
guitar 1
E||--------------------|
B||--------------------|
G||--------------------|
D||-13-13---13-13------|
A||--------------------|
E||--------------------|

guitar 2
E||-------------------------|
B||-------------------------|
G||-----------5555----------|
D||-2222-5555-5555-77-------|
A||-2222-5555-3333-77-------|
E||-0000-3333------55-------|


Verse 2:
guitar 1
E||---------------------------------|
B||---------------------------------|
G||---------------------------------|x2
D||-13-13---13-13---16-16------13---|
A||-------------------------13------|
E||---------------------------------|

guitar 2
E||-------------------------|
B||-------------------------|
G||-----------5555----------|x2
D||-2222-5555-5555-777/99---|
A||-2222-5555-3333-777/99---|
E||-0000-3333------555/77---|


Pre chorus 2:
guitar 1
E||-----------------|
B||-----------------|
G||-----------------|
D||-16-16------13---|
A||---------13------|
E||-----------------|


Chorus:
guitar 1
E||---------------------------------|
B||---------------------------------|
G||---------------------------------|x4
D||-13-13---13-13---16-16------13---|
A||-------------------------13------|
E||---------------------------------|

guitar 2
E||-------------------------|
B||-------------------------|
G||-----------5555----------|x4
D||-2222-5555-5555-777/99---|
A||-2222-5555-3333-777/99---|
E||-0000-3333------555/77---|


After chorus 2:
guitar 1
E||-----------------------------------------------------------------------|
B||-----------------------------------------------------------------------|
G||-----------------------------------------------------------------------|
D||-------------------13-----------------13--13-13---13-13---16-16-----13-|
A||-----------------13-----------------13----------------------------13---|
E||-----------------------------------------------------------------------|

guitar 2
E||------------------------------------------------|
B||------------------------------------------------|
G||-----------5555-------------------5555----------|
D||-2222-5555-5555-777/99--2222-5555-5555-777/99---|
A||-2222-5555-3333-777/99--2222-5555-3333-777/99---|
E||-0000-3333------555/77--0000-3333------555/77---|

[ Tab from: http://www.guitaretab.com/b/britney-spears/192610.html ]
Bridge:
guitar 1
E||----------------------------------------------------------------|
B||----------------------------------------------------------------|
G||----------------------------------------------------------------|
D||-13-13---13-13---16-16------13----13-13---13-13---16-16---------|
A||-------------------------13-------------------------------------|
E||----------------------------------------------------------------|

guitar 2 
E||-------------------------|
B||-------------------------|
G||-----------5555----------|x2
D||-2222-5555-5555-777/99---|
A||-2222-5555-3333-777/99---|
E||-0000-3333------555/77---|


guitar solo:
E||-----------------------------------------------|
B||-11-11-11-11--11-9----9------------------------|
G||-------------------11---8--13--11----13--10----|
D||-----------------------------------------------|
A||-----------------------------------------------|
E||-----------------------------------------------|
]
E||--------------9---------------------------------------------|
B||-11-11-11-11-----11-9---------------------------------------|
G||----------------------11-13---13--11------------------------|
D||------------------------------------------------------------|
A||------------------------------------------------------------|
E||------------------------------------------------------------|

E||-----------------------------------------------|
B||-11-11-11-11--11-9----9------------------------|
G||-------------------11---8--13--11----13--10----|
D||-----------------------------------------------|
A||-----------------------------------------------|
E||-----------------------------------------------|

E||--------------9---------------------------------------------|
B||-11-11-11-11-----11-9----------------------11---------------|
G||----------------------11-13---13--11----13---13-11-13-------|
D||------------------------------------------------------13----|
A||------------------------------------------------------------|
E||------------------------------------------------------------|


Last chorus: 
guitar 1
E||---------------------------------|
B||---------------------------------|
G||---------------------------------|x8
D||-13-13---13-13---16-16------13---|
A||-------------------------13------|
E||---------------------------------|

guitar 2
E||-------------------------|
B||-------------------------|
G||-----------5555----------|x8
D||-2222-5555-5555-777/99---|
A||-2222-5555-3333-777/99---|
E||-0000-3333------555/77---|


Solo during chorus:
E||-----------------------------------------------|
B||-11-11-11-11--11-9----9------------------------|
G||-------------------11---8--13--11----13--10----|
D||-----------------------------------------------|
A||-----------------------------------------------|
E||-----------------------------------------------|

E||--------------9---------------------------------------------|
B||-11-11-11-11-----11-9---------------------------------------|
G||----------------------11-13---13--11------------------------|
D||------------------------------------------------------------|
A||------------------------------------------------------------|
E||------------------------------------------------------------|

E||-----------------------------------------------|
B||-11-11-11-11--11-9----9------------------------|
G||-------------------11---8--13--11----13--10----|
D||-----------------------------------------------|
A||-----------------------------------------------|
E||-----------------------------------------------|

E||--------------9---------------------------------------------|
B||-11-11-11-11-----11-9----------------------11---------------|
G||----------------------11-13---13--11----13---13-11-13-------|
D||------------------------------------------------------13----|
A||------------------------------------------------------------|
E||------------------------------------------------------------|

Related for Radar tab