Song name
# A B C D E F G H I J K L M N O P Q R S T U V W X Y Z

Britney Spears - Hit Me Baby One More Time chords

Highlighted       Show chord diagrams
This just adds the descending bass notes on the chords to add a little harmony for accompanying.


    G5  A5    Am7  E/G#  C/G  Dm/F  Em or  
e--------------x----x-----x----1----x----x--0-----------|
b--------------x----5-----5----3----5---5---0-----------|
g--------------5----4-----5----2----4---4---0-----------|
d---x----x-----5----2-----5----x----5---5---2-----------|
a---5---7------x----x-----3----x----x---x---2-----------|
e---3---5------5----4-----3----1----0---3---0-----------|

You can also move the voicings around to change it up a little. I've included a 
few alternatives for ideas...

    G5  A5    Am7  E/G#  C/G  Dm/F  Em or  
e--------------5----x-----x----x----x------x----------|
b--------------5----9-----8----6----5------12---------|
g--------------5----9-----9----7----7------12---------|
d---x---x------0----9-----10---7----4------12---------|
a---5---7------x----11----10---8----7------x----------|
e---3---5------x----x-----x----x----x------0----------|

...have fun.


Intro G5  A5  G5 A5

Am7
Oh baby, baby
     E/G#              C/G
How was I supposed to know
      Dm/F              Em    
That something wasn't right here
Am
Oh baby baby
     E                   C
I shouldn't have let you go
     Dm                Em
And now you're out of sight, yeah
Am7               E/G#       
Show me, how you want it to be
         C/G
Tell me baby
                  Dm/F               Em
'Cause I need to know now what we've got


Chorus:
Am                E
My loneliness is killing me
C                   Dm/F            Em
I must confess, I still believe, still believe.
Am7                      E/G#
When I'm not with you I lose my mind
C/G
Give me a sign
Dm/F         Em             Am7  
Hit me baby one more time     
Tap to rate this tab
# A B C D E F G H I J K L M N O P Q R S T U V W X Y Z