Britney Spears - Hot As Ice tab

-------------------------------------------------------------------------------
			     Hot as Ice - Britney Spears
-------------------------------------------------------------------------------
Tabbed by: Athosbm
Email: athos_barros@hotmail.com

You can play it alone or with a second guitar. My sister played the basic tab, and I 
the other tabs in another guitar. If you have two guitars, you can try :) it sounds better.

Someone can play the basic tab throughout the whole song:

e|--------------------------------------------------------------------|
B|--------------------------------------------------------------------|
G|--------------------------------------------------------------------|
D|--2--0--2--0--------------------------------0--1--2-----------------|
A|--------------3--0--2--3--2--3--2--3--2--0--------------------------|
E|--------------------------------------------------------------------|

While you play the rest:

On the chorus, u can play:

e|--3--5--3----5--10--7-----------------------------------------------|
B|--------------------------------------------------------------------|
G|--------------------------------------------------------------------|
D|--------------------------------------------------------------------|
A|--------------------------------------------------------------------|
E|--------------------------------------------------------------------|

When she sings “break it down…”, you hear a sound like:

e|--7--5--7--5--3--0--3--5--3---0--3--3--5--5--7--7--10--7---5--10--7-|
B|--------------------------------------------------------------------|
G|--------------------------------------------------------------------|
D|--------------------------------------------------------------------|
A|--------------------------------------------------------------------|
E|--------------------------------------------------------------------|

On the bridge, play:

e|--7--5--7--5--3--0--3--5--3---0--3--5--7--5--10--7------------------|
B|--------------------------------------------------------------------|
G|--------------------------------------------------------------------|2x
D|--------------------------------------------------------------------|
A|--------------------------------------------------------------------|
E|--------------------------------------------------------------------|

At the end, when she’s not singing anymore, play like the “break it down” part:

e|--7--5--7--5--3--0--3--5--3---0--3--3--5--5--7--7--10--7---5--10--7-|
B|--------------------------------------------------------------------|
G|--------------------------------------------------------------------|
D|--------------------------------------------------------------------|
A|--------------------------------------------------------------------|
E|--------------------------------------------------------------------|


Rate it if you liked it (or not) :)

Hugs from Brazil :D
Tap to rate this tab
 
# A B C D E F G H I J K L M N O P Q R S T U V W X Y Z