Britney Spears - 3 tab

my first tab, hope you guys can understand it
it's done by ear so yeah it may not be perfect.

h= Hammer-On

(intro)
e||--4-4-----4-4----4-4----|-----------------------|--------------------|
B||------------------------|----4------------------|--------------------|
G||------------------------|-------6--666--5-------|--------------------|
D||-------6-------6--------|--6--------------------|--------------------|
A||------------------------|-----------------------|--------------------|
E||------------------------|-----------------------|--------------------|


(breakdown - 2:22 into the song)
e||---4------------4-----4-|-----------------------|--------------------|
B||-----4--------4-----4---|-----------------------|--------------------|
G||------------------------|-----------------------|--------------------|(x8)
D||-6-----6--5h6-----------|-----------------------|--------------------|
A||------------------------|-----------------------|--------------------|
E||------------------------|-----------------------|--------------------|
Tap to rate this tab
 
# A B C D E F G H I J K L M N O P Q R S T U V W X Y Z