Britney Spears - Hold It Against Me tab

----------------------------------------------------------------------------
			     Hold It Against Me – Britney Spears
----------------------------------------------------------------------------
Tabbed by:Death_Leopard
Email:death_leopard8@yahoo.com

Tuning:Standard
 
Verse
e|---------------------|--------------------|
B|---------------------|--------------------|
G|-5-5-5-8-\-5-5-5-10-\|-5-5-5-5-8-10-8-10--|
D|-5-5-5-8-\-5-5-5-10-\|-5-5-5-5-8-10-8-10--|
A|-3-3-3-6-\-3-3-3-8--\|-3-3-3-3-6-8--6-8---|
E|---------------------|--------------------|
“Hey over there”
Chorus
e|-3--3-3--3-3--4--4-4--4--6--6-6--6--3--3-3--3---|
B|-4--4-4--4-4--4--4-4--4--6--6-6--6--3--3-3--3---|x4
G|-5--5-5--5-5--5--5-5--5--7--7-7--7--3--3-3--3---|
D|-5--5-5--5-5--6--6-6--6--8--8-8--8--5--5-5--5---|
A|-3--3-3--3-3--6--6-6--6--8--8-8--8--5--5-5--5---|
E|--------------4--4-4--4--6--6-6--6--3--3-3--3---|
“If I said my heart was beating loud”

Bridge
e|------------------------------|
B|-4-4-4------------------------|
G|-------5--5-5-7-7-7--3--3-3---|
D|------------------------------|
A|-3-3-3------------------------|
E|-------4--4-4-6-6-6--3--3-3---|

| /   slide up
| \   slide down
| h   hammer-on
| p   pull-off
| ~   vibrato
| +   harmonic
| x   Mute note
| b   Bend
| pb  Pre-bend
| br  Bend release
| pbr Pre-bend release
| brb Bend release bend
Tap to rate this tab
 
# A B C D E F G H I J K L M N O P Q R S T U V W X Y Z