Song name
# A B C D E F G H I J K L M N O P Q R S T U V W X Y Z

Britney Spears - Ooh Ooh Baby tab

This tab is very easy, and repeats the intire song, you just have to listen to where its
It's one of Britney's new songs. Enjoy!

/ Hammer


e|---2/3/2---2---0-------2---2---0---0---3---3---2---2---5---5---3---3---7---|
B|-------------------4-------------------------------------------------------|
G|---------------------------------------------------------------------------|
D|---------------------------------------------------------------------------|
A|---------------------------------------------------------------------------|
E|---------------------------------------------------------------------------|

e|---7---5---5---8---8---7---7---5---5---3---3---7---7---5---5---------------|
B|---------------------------------------------------------------------------|
G|---------------------------------------------------------------------------|
D|---------------------------------------------------------------------------|
A|---------------------------------------------------------------------------|
E|---------------------------------------------------------------------------|

e|---2/3/2---------2---0-----------------------------------------------------|
B|------------4--------------------------------------------------------------|
G|---------------------------------------------------------------------------|
D|---------------------------------------------------------------------------|
A|---------------------------------------------------------------------------|
E|---------------------------------------------------------------------------|
Tap to rate this tab
# A B C D E F G H I J K L M N O P Q R S T U V W X Y Z