Song name
# A B C D E F G H I J K L M N O P Q R S T U V W X Y Z

Britny Fox - Girlschool tab

i cannot believe no one tabbed this out for guitar

e|----------------------------------------------------------------------------|
B|----------------------------------------------------------------------------|
G|-------2-2-2-------2-2-2-------2-2-2--------2-2-2--------2-------2--------|
D|-------2-2-2-------2-2-2-------2-2-2--------2-2-2--------2-------2--------|
A|-------0-0-0-------0-0-0-------0-0-0--------0-0-0--------0-------0--------|
E|-0-3-4-------0-3-4-------0-3-4--------0-3-4--------0-3-4---0-3-4----------|
  of course you know you gotta hit the a alot more times than whats there
e|------------------|--------3-----------3----------------------------------|
B|------------------|--------3--3--3--3--3--3--3--3------------------------|
G|-------2-------2--|-2-2-2-0--2--0--2--0--2--0--2-------2---2--------2----|
D|-------2-------2--|-2-2-2----0--0--0-----0--0--0-------2---2--------2---|
A|-------0-------0--|-0-0-0----------------------------3--0---0--------0---|
E|-0-3-4---0-3-4----|----------------------------------------3---0-3-4-----|
and after that last part do a repeat of the main chord progression
e|---------------------------------------------------------------------------|
B|---------------------------------------------------------------------------|
G|-2--0-0-----2---2----------------------------------------------------------|
D|-2--0-0-----2---2---repeat-until-main-part-----------------------------------|
A|-0--2-2--3--0---0----------------------------------------------------------|
E|----3-3--------3-----------------------------------------------------------|
  (chorus)
e|---------------------------------------------------------------------------|
B|---------------------------------------------------------------------------|
G|-(7)-bend-up-5---5--------------------2------------------------------------|
D|---------------7--7--7--5------------2------------------------------------|
A|---------------------------7-6-5-0-3-0------------------------------------|
E|---------------------------------------------------------------------------|
 i forgot after the first verse they do something like this
well thats about all dudes i cant quite piece the solo together just yet but i will
Tap to rate this tab
# A B C D E F G H I J K L M N O P Q R S T U V W X Y Z