Guitaretab - guitar tabs
Song name
# A B C D E F G H I J K L M N O P Q R S T U V W X Y Z

Britny Fox - Grilschool tab

Britny Fox
Girlschool
Album: Britny Fox
Autor: Dizzy Davidson

BRITNY FOX ROCKS!!!!

Verse-Chorus
[ Tab from: http://www.guitaretab.com/b/britny-fox/72313.html ]
e|-------------------------------------------------------------|
B|-------------------------------------------------------------|
G|-2--0-0-----2--00----2--------------------------------------|
D|-2--0-0-----2--0-0----2--------------------------------------|
A|-0--2-2--3--0--2-2----0--------------------------------------|
E|----3-3--------3-3--3----------------------------------------|
  
Play this fiff after any Verse

e|--------------------------------------------------------|
B|--------------------------------------------------------|
G|-7-bend-up-5---5----------------------------------------|
D|---------------7--7--7--5-------------------------------|
A|---------------------------7-6-5-0-3--------------------|
E|--------------------------------------------------------|
Related for Grilschool tab