Song name
# A B C D E F G H I J K L M N O P Q R S T U V W X Y Z

Britt Nicole - Set The World On Fire tab

Set The World On Fire  Britt Nicole

Standard Tuning, Capo 4th fret

This is my first tab ever so sorry if it's hard to understand :(

Intro/Verse/Pre-Chorus:

e----------------------------------------------|
B---------3------3-----3---------3-------------|
G-------0------0-----0---0-----0---0-----------|
D-----0------0-----2---------0-----------------|
A---2------3-----------------------------------|
E----------------------------------------------|


Chorus:

    G   D2   C2    G   D2   C2
e---3----0----3----3----0----3-----------------|
B---3----3----3----3----3----3-----------------|
G---0----2----0----0----2----0-----------------|
D---0----0----2----0----0----2-----------------|
A---2---------3----2---------3-----------------|
E---3--------------3---------------------------|

Chorus Variation?:

   Em7   G    C2   G    D2   C2
e---3----3----3----3----0----3-----------------|
B---3----3----3----3----3----3-----------------|
G---0----0----0----0----2----0-----------------|
D---2----0----2----0----0----2-----------------|
A---2----2----3----2---------3-----------------|
E--------3---------3---------------------------|


Bridge:

   Em7   C2   G    D2   Em7  C2   G   D2
e---3----3----3----0----3----3----3----0-------|
B---3----3----3----3----3----3----3----3-------|
G---0----0----0----2----2----0----0----2-------|
D---2----2----0----0----2----2----0----0-------|
A---2----3----2---------2----3----2------------|
E-------------3-------------------3------------|

Tap to rate this tab
 
# A B C D E F G H I J K L M N O P Q R S T U V W X Y Z