Song name
# A B C D E F G H I J K L M N O P Q R S T U V W X Y Z

Britt Nicole - Believe tab

This is my very first tab. This song is by
my current fav singer Britt Nicole. 
I think she is so amazing and inspirational,
so I decided that my first tab will be
Believe by Britt Nicole. Enjoy! :)


*=One Strum

Intro:

E---------------------------------|
B---------------------------------|
G---------------------------------| x2
D---------------------------------|
A----5-5-5-6-3--3-5-3-5-3-6-5-----|
E--3------------------------------|

Verse:

E---------------------------------|
B---------------------------------|
G---------------------------------| x3
D---------------------------------|
A----5-5-5-6-3--3-5-3-5-3-6-5-----|
E--3------------------------------|

E-----------------------------------------------------|
B-----------------------------------------------------|
G-----------------------------------------------------|
D------------------------------5----------------------|
A----5-5-5-6-3--3-5-3-5-3-6-5--x----------------------|
E--3---------------------------3-3-3-3-3-3-3-3-3-3-3--|

Chorus:

             Ab               Cm           Bb
I wanna believe. I wanna believe in love again.
             Ab               Eb           Bb
I wanna believe. I wanna believe in love again.
                      Ab                Cm
Tired of living this way, tired of everyday
             Bb
So will you help me
           Ab            Cm*
I wanna breakthrough. I wanna believe in you.

Bridge:

   Gm           Cm
E---6-----|  E---8-----|
B---8-----|  B---8-----|
G---7-----|  G---8-----|
D---------|  D---------|
A---------|  A---------|
E---------|  E---------|

G5           Gm       G5
You found me found me you were lookin for me
G5           Gm       G5
You found me found me you were lookin for me
G5       Gm     G5
You found me, you were waiting for me
G5    Gm    G5
I can see your love
C5       Cm     Eb5     F5
You found me, you were waiting for me
C5    Cm    Eb5 F5
I can see your love

Barre Chords
Cm                                  Eb
I believe in you, I believe in you, I believe in you
Cm                                  Eb
I believe in you, I believe in you, I believe in you

Tap to rate this tab
 
# A B C D E F G H I J K L M N O P Q R S T U V W X Y Z