Song name
# A B C D E F G H I J K L M N O P Q R S T U V W X Y Z

Broadcast 2000 - Get Up And Go tab

Capo 3
Standard Tuning.



First Tab, so please excuse any errors.
E::----------------------2--------------------------------::
B::------2-------2-------3-------2-------2----------------::
G::------2-------2-------2-------2-------2-------2---1----::
D::------4-------4---0-----------2-------2---------------2::
A::--------------------------0-------0-------0------------::
E::--2-------2--------------------------------------------::


Glockenspiel part
Standard Tuning 
No capo.
E::------12-----12------10---8-------8----8------8-----8--::
B::--13-----13------13-------------10---10-----10----10-10::
G::------------------------------12----12----12----12-----::
D::-------------------------------------------------------::
A::-------------------------------------------------------::
E::-------------------------------------------------------::

Please note that the chords are to be played staccato.
And that plays through the entire song!

https://www.youtube.com/watch?feature=player_embedded&v=hr08VBtQznc
I got the chords from watching this.
ENJOY!
Tap to rate this tab
# A B C D E F G H I J K L M N O P Q R S T U V W X Y Z