Song name
# A B C D E F G H I J K L M N O P Q R S T U V W X Y Z

Broadcast - Living Room tab

Band: Broadcast
Song: Living Room 
Album: Work and Non Work (1997)
Official website: http://futurecrayon.blogspot.com/

Tabbed by: spacedcased


Intro / Riff 1
e|------------------------|
B|------------------------|
G|---6----6-----7-----7---| 
D|--7-7--9-9--10-10--9-9--| x2
A|------------------------|
E|------------------------|


Riff 2
e|---------------------------------------|-----------------------|
B|---------------------------------------|----6--86-------6--86--|
G|---6----6-----7------7------7------7---|--/7-7---7----/7-7---7-|
D|--7-7--9-9--10-10--10-10--10-10--10-10-|-----------------------| 
A|---------------------------------------|-----------------------|
E|---------------------------------------|-----------------------|
(Repeat Riff 1 once then Riff 2 again)


Chorus
e|----5-5------5-5------5-5------3----------|
B|-7---7----6---6----5---5----3----5--------|
G|------------------------------------------|
D|------------------------------------------|  
A|------------------------------------------|
E|------------------------------------------|



Bridge
e|---------------------------------------------|
B|---------------------------------------------|
G|--14-14-14---1212--(x2)--10-10-10---99--(x2)-|
D|---------------------------------------------|  
A|---------------------------------------------|
E|---------------------------------------------|


Tap to rate this tab
# A B C D E F G H I J K L M N O P Q R S T U V W X Y Z