Song name
# A B C D E F G H I J K L M N O P Q R S T U V W X Y Z

Broadway Calls - Save Our Ship tab

Song-Save our ship
Band-Broadway calls
Album-Oregon
Tabbed-Greenday2003
Email-Greenday_rhcp2002@yahoo.co.uk

Listen to song for exact rhythm and timing


Acoustic
|-----------------------------------------------------------------------|
|-----------------------------------------------------------------------|
|----4---4----4----4----------------------------------------------------|
|-444444444444444444----6---6---6---6----2---2---2---2----4---4---4---4-|
|-222222222222222222-6666666666666666-2222222222222222-4444444444444444-|
|--------------------4444444444444444-0000000000000000-2222222222222222-| x3

_______________________________________Watch for the change
|---------------------------------------------------------------|
|---------------------------------------------------------------|
|----4---4----4----4--------------------------------------------|
|-444444444444444444----6---6---6---6---2--2--2--2---4-4--4---4-|
|-222222222222222222-6666666666666666-222222222222-444444444444-|
|--------------------4444444444444444-000000000000-222222222222-|x1


|---------------------------------------------------------|
|---------------------------------------------------------|
|---4--4--4--4-----------------------------------------4~-|
|-444444444444---6--6--6--6---2--2--2--2---4--4--4--4--4~-|
|-222222222222-666666666666-222222222222-444444444444--2~-|
|--------------444444444444-000000000000-222222222222-----|x1


Distortion
|---------------------------------------------------------------------|
|---------------------------------------------------------------------|
|-4444444444444444----------------------------------------------------|
|-4444444444444444-6666666666666666-2222222222222222-4444444444444444-|
|-2222222222222222-6666666666666666-2222222222222222-4444444444444444-|
|------------------4444444444444444-0000000000000000-2222222222222222-|x2

End on
|----|
|----|
|-4~-|
|-4~-|
|-2~-|
|----|
Tap to rate this tab
 
# A B C D E F G H I J K L M N O P Q R S T U V W X Y Z