Song name
# A B C D E F G H I J K L M N O P Q R S T U V W X Y Z

Broadway Calls - Suffer The Kids tab

SUFFER THE KIDS

0:00- 0:30

e|-------------------------------------------------------------|
b|-------------------------------------------------------------|
g|-5---------2-------------------------------------------------|
d|-5----5----2----3-----5--------------------------------------|
a|-3----5----0----3-----5--------------------------------------|
e|------3----------1-----3-------------------------------------|

0:30- 0:40 Little riff thing

e|------------------------------------------------------------------------|
b|------------------------------------------------------------------------|
g|------------------------------------------------------------------------|
d|------------------------------------------------------------------------|
a|----5--7--5--7--55-----7--5------5--7--5--7--55------7--5---------------|
e|----------------------8---------8-----------------8-------------8-------|

e|--------------------------------------------------------------------------|
b|--------------------------------------------------------------------------|
g|--------------------------------------------------------------------------|
d|---5--3--2-----5--3--2----------------------------------------------------|
a|-------------3------------3------3-----5-----5/7--5-----5--3--------------|
e|-------------------------------------3-----3-----------3------------------|


0:40- 1:10

e|-------------------------------------------------------------|
b|-------------------------------------------------------------|
g|-5---------2-------------------------------------------------|
d|-5----5----2----3-----5--------------------------------------|
a|-3----5----0----3-----5--------------------------------------|
e|------3----------1-----3-------------------------------------|


1:10- 1:21

e|------------------------------------------------------------------------|
b|------------------------------------------------------------------------|
g|------------------------------------------------------------------------|
d|------------------------------------------------------------------------|
a|----5--7--5--7--55-----7--5------5--7--5--7--55------7--5---------------|
e|---------------------8-------8--------------------8-------------8-------|

e|--------------------------------------------------------------------------|
b|--------------------------------------------------------------------------|
g|--------------------------------------------------------------------------|
d|---5--3--2-----5--3--2----------------------------------------------------|
a|-------------3------------3------3-----5-----5/7--5-----5--3--------------|
e|-------------------------------------3-----3-----------3------------------|

then just play these chords for the rest of the song:

e|-------------------------------------------------------------|
b|-------------------------------------------------------------|
g|-5---------2-------------------------------------------------|
d|-5----5----2----3-----5--------------------------------------|
a|-3----5----0----3-----5--------------------------------------|
e|------3----------1-----3-------------------------------------|
Tap to rate this tab
# A B C D E F G H I J K L M N O P Q R S T U V W X Y Z