Song name
# A B C D E F G H I J K L M N O P Q R S T U V W X Y Z

Broadway Calls - Be All That You Cant Be tab

Artist: Broadway Calls
Song: Be All That You Can't Be
Tabbed By: Chris Norkett
Email: c_norkett@hotmail.com 

Tuning: Standard(E A D G B E)

Symbol Guide
s  = slide
p  = pull off
PM = palm muted

============
Rythm Guitar
============

  Intro        Bridge
E|------------|----------|
B|------------|----------|
G|--3--x16----|--3--x16--|
D|--1---------|--1-------|
A|------------|----------|
E|------------|----------|
    PM....................                   


  Verse
E|---------------------|
B|---------------------|
G|--3-x16--3-----------| x4
D|--1------3-x8--6-----|
A|---------1-----6-x8--|
E|---------------4-----|
    PM..................


  Chorus
E|-----------------------------------------|
B|--4444------------------------4444-------|
G|--3333------33333333----------3333-3333--| x2
D|--1111-6666-33333333-66666666-1111-3333--|
A|-------6666-11111111-66666666------1111--|
E|-------4444----------44444444------------|



  Bridge
E|------------|
B|------------|
G|--3--x16----|
D|--1---------|
A|------------|
E|------------|
    PM.........


  Verse
E|---------------------|
B|---------------------|
G|--3-x16--3-----------| x4
D|--1------3-x8--6-----|
A|---------1-----6-x8--|
E|---------------4-----|
    PM..................


  Chorus
E|-----------------------------------------|
B|--4444------------------------4444-------|
G|--3333------33333333----------3333-3333--| x2
D|--1111-6666-33333333-66666666-1111-3333--|
A|-------6666-11111111-66666666------1111--|
E|-------4444----------44444444------------|



  Riff
E|----------------------|
B|--4-------------------|
G|--3----7----5----3~~--|
D|--1----7----5----3~~--|
A|-------5----3----1~~--|
E|----------------------|



  Outro
E|--------------------------|    |-----------------|
B|--6666--------------------|    |--6666-----------|
G|--5555--3333--5555--3333--| x3 |--5555--3333--5--|
D|--3333--3333--5555--3333--|    |--3333--3333--5--|
A|--------1111--3333--1111--|    |--------1111--3--|
E|--------------------------|    |-----------------|


E|--------------------------|    |-------|
B|--6666--------------------|    |-------|
G|--5555--3333--5555--3333--| x3 |-------|
D|--3333--3333--5555--3333--|    |--3~~--|
A|--------1111--3333--1111--|    |--3~~--|
E|--------------------------|    |--1~~--|



===========
Lead Guitar
===========

  Intro and Verse
E|---------------|
B|---------------|
G|---------------|
D|---1-3-1-------| Played when rythm is doing palm mute 
A|-1-------------|
E|---------------|
  PM..............


  (0:36)
E|------------|
B|------------|
G|------------|
D|-----1p0-3--|
A|-1-3--------|
E|------------|



  (1:25)
E|------------------------------------------------------|
B|------------------------------------------------------|
G|-------0-----------------------------0----------------|
D|---3-1---3-3p1------1---1--------3-1---3-3p1------1~--|
A|-1--------------1-3---3---3p1--1--------------1-3-----|
E|------------------------------------------------------|
  Don't hold the notes, pick each note then let go


  (2:04)
E|-----------------------|
B|--4-3-1----------------|
G|--------3-11111111-1~--|
D|-----------------------|
A|-----------------------|
E|-----------------------|



  (2:39)
E|--------------------------------|
B|--------------------------------|
G|-------3p0-------3p0------------| x2
D|-3----------2s3--------2s3------|
A|---3-1---------------------3-1--|
E|--------------------------------|




Ryhtm

Intro  x 1
Bridge x 1
Verse  x 4
Chorus x 2
Bridge x 1
Verse  x 4
Chorus x 3
Riff   x 1
Outro  x 1


Tap to rate this tab
 
# A B C D E F G H I J K L M N O P Q R S T U V W X Y Z