Song name
# A B C D E F G H I J K L M N O P Q R S T U V W X Y Z

Broadway Calls - Stealing Sailboats Acoustic chords

Highlighted       Show chord diagrams
-------------------------------------------------------------------------------
                            STEALING SAILBOATS - Broadway Calls
-------------------------------------------------------------------------------
Intro tabbed by me. Chords supplied by THEAlexPKeaton1 on the UG forums . Posting it 
here so others can use it.

Note: This is the Toxic Kids EP version, extended to include the second verse that's on 
the electric version.

Intro

   C                              F         Gsus4
e|--------3----0---------0-------------------------------------------|
B|-5----5--------3-----3---3------6----6---------0-------------------|
G|-----------------5-5-------5--------------5--5---2-----------------|
D|---------------------------------------------------0-0-------------|
A|-------------------------------------------------------------------|
E|-------------------------------------------------------------------|

   C                              F         Gsus4  G

e|--------3----0---------0-------------------------------------------|
B|-5----5--------3-----3---3------6----6---------0-------------------|
G|-----------------5-5-------5--------------5--5---2-----------------|
D|---------------------------------------------------0-0-------------|
A|-------------------------------------------------------------------|
E|-------------------------------------------------------------------|

VERSE
         C
Pick me up, cause I'm broken

          F                       Gsus4 G
I've got rust creeping through my veins

      C
I recall, what they all said

        F                    Gsus4 G
When I set sail across Great Lakes



PRECHORUS
                 C     C/B
   You'll never make it

Am       Am/G       F             G
  You'll never navigate the sea alone

                 C     C/B
   You'll never make it

Am      Am/G         F                 G
   I've seen better men go down, stay home


CHORUS
            C             G
But I cast off anyway, created my fate

          F            G
Pulled my anchor up at dawn

        C             G
I cast off anyway, created my fate

          F              G
And the birds sang me along, whoa


C


   F                 Gsus4     G
I need this water to help me breathe


C

           F      Gsus4    G
Cause I'm on fire constantly


C


   F                 Gsus4     G
I need this water to help me breathe


C

           F      Gsus4    G
Cause I'm on fire constantly


C
Tap to rate this tab
# A B C D E F G H I J K L M N O P Q R S T U V W X Y Z