Song name
# A B C D E F G H I J K L M N O P Q R S T U V W X Y Z

Broadway - Same Thing We Do Everynight Pinky tab

Broadway-Same Thing We Do Everynight Pinky (Ft. Craig Owens)
Album:Kingdoms
Tunning:Drop c

Introx2(figure out timming)
|----------------|---------------|-------------------|
|----------------|---------------|-------------------|
|-------------3--|-------------3-|-----------------3-|
|-5-5-5-5-5--7-7-|-8-8-8-8-8--7-7|-10-10-10-10-10-7-7|
|-5-5-5-5-5------|-8-8-8-8-8-----|-10-10-10-10-10----|
|-5-5-5-5-5------|-8-8-8-8-8-----|-10-10-10-10-10----|
  . . . . .        . . . . .       .  .  .  .  .
1st ending(not exact strumming)
|----------------------------|
|----------------------------|
|-12121212-14141414-17171717-|
|-xxxxxxxx-xxxxxxxx-xxxxxxxx-|
|-10101010-12121212-15151515-|
|----------------------------|
2nd endind(not exact strumming)
|--------------------------------------------|
|--------------------------------------------|
|-12121212-14141414-15151515-17-1717-17-1717-|
|-xxxxxxxx-xxxxxxxx-xxxxxxxx-x--xxxx-x--xxx--|
|-10101010-12121212-13131313-15-1515-15-1515-|
|--------------------------------------------|

Then
plsy as many times needing
|----------13--|---------------------------|
|---11---11--11|---------------------------|
|-14--14-------|-121212-141414-171717------|
|--------------|-xxxxxx-xxxxxx-xxxxxx <----| x2 whole section
|--------------|-101010-121212-151515------|
|--------------|---------------------------|

transition into chorus

|----------|
|----------|
|-14141414-|
|-xxxxxxxx-|
|-12121212-|
|----------|

Chorus x2
|--------------------------------------------|
|--------------------------------------------|
|--------------------------------------------|
|-555555-333333-888888-----------------------|
|-555555-333333-888888-----------------------|
|-555555-333333-888888-----------------------|

|--------------------------------------------|
|--------------------------------------------|
|-12121212-14141414-15151515-171717171717----|
|-xxxxxxxx-xxxxxxxx-xxxxxxxx-xxxxxxxxxxxx----|
|-10101010-12121212-13131313-151515151515----|
|--------------------------------------------|

after chorus
|------|------|1st      |----------------------------|
|------|----6~| ending  |----------------------------|
|------|---3--|         |121212-141414--171717-------|
|-55555|--7---|         |xxxxxx-xxxxxx--xxxxxx-- <-2-|nd,3rd,4th ending
|-55555|-0----|         |101010-121212--151515-------|
|-55555|------|         |----------------------------|

then this part
|-------------------------------------|
|-------------------------------------|
|-12~-10~-14~-1212-1212-1212---141414-|
|-x----x------xxxx-xxxx-xxxx---xxxxxx-|
|-10~--9~-12~-1010-1010-1010---121212-|
|-------------------------------------|
Chorus x2
|--------------------------------------------|
|--------------------------------------------|
|--------------------------------------------|
|-555555-333333-888888-----------------------|
|-555555-333333-888888-----------------------|
|-555555-333333-888888-----------------------|

|--------------------------------------------|
|--------------------------------------------|
|-12121212-14141414-15151515-171717171717----|
|-xxxxxxxx-xxxxxxxx-xxxxxxxx-xxxxxxxxxxxx----|
|-10101010-12121212-13131313-151515151515----|
|--------------------------------------------|

Ill finish the rest later , but still thats enough to get you going:)and its not the 
way but trust me it sounds fine
Tap to rate this tab
# A B C D E F G H I J K L M N O P Q R S T U V W X Y Z