Song name
# A B C D E F G H I J K L M N O P Q R S T U V W X Y Z

Broadway - Im On A Boat tab

-----------------------------------------------------------------------------
			     I’m On A Boat - Broadway
-----------------------------------------------------------------------------
Tabbed by: REpTar

Tuning: Drop D

(0:16)“I’m on a boat,…”

e|---------------------------------------------------------------------------|
B|---------------------------------------------------------------------------|
G|---------------------------------------------------------------------------|
D|-7-----9-10-------3-------5------77777777----------------------------------|
A|-7-----9-10-------3-------5------77777777----------------------------------|
D|-7-----9-10-------3-------5------77777777----------------------------------|

(0:28) “I’m on a boat motherf**ker…”
|---------------------------------------------------------------------------|
|---------------------------------------------------------------------------|
|---------------------------------------------------------------------------|
|-7-------9------10-------3-------5-----------------------------------------|
|-7-(12x)-9-(4x)-10-(16x)-3-(16x)-5-(16x)-----------------------------------|
|-7-------9------10-------3-------5-----------------------------------------|
   .       .      .        .       .
(0:40) “Take a picture trick…”
|---------------------------------------------------------------------------|
|---------------------------------------------------------------------------|
|---------------------------------------------------------------------------|
|-77-77-7-9-1010-1010-10-10-33-33-3-3-55-55-5-5-----------------------------|
|-77-77-7-9-1010-1010-10-10-33-33-3-3-55-55-5-5-----------------------------|
|-77-77-7-9-1010-1010-10-10-33-33-3-3-55-55-5-5-----------------------------|

Repeat the last two parts for (0:52-1:14)

(1:15) “get the f**k up,…”
|----------------------------------------------------------------------------|
|----------------------------------------------------------------------------|
|----------------------------------------------------------------------------|
|----------------------------------------------------------------------------|
|----------------------------------------------------------------------------|
|-777777777777777777777777-7-777-7-777-77779999-10-101010-10-101010-10101010-|
  ........................ . ... . ... ........ .  . . .  .  . . .  . . . .
|---------------------------------------------------------------------------|
|---------------------------------------------------------------------------|
|---------------------------------------------------------------------------|
|---------------------------------------------------------------------------|
|---------------------------------------------------------------------------|
|10101010-3-333-3-333-33333333-5-555-5-555-55555555-------------------------|
 . . . .  . ... . ... ........ . ... . ... ........

(1:31) “Hey ma if you could see me now,”
|-----------------------------------------------------------------------------|
|-----------------------------------------------------------------------------|
|-----------------------------------------------------------------------------|
|-7-7-7---777-999—-10-10-10---101010-101010—-3-3-3---333-333—-5-5-5---555-555-|
|-7-7-7---777-999—-10-10-10---101010-101010—-3-3-3---333-333—-5-5-5---555-555-|
|-7-7-7---777-999--10-10-10---101010-101010--3-3-3---333-333—-5-5-5---555-555-|
  . . .   ... ...  .  .  .   . . .  . . .    . . .   ... ...  . . .   ... ...

(1:41)
|---------------------------------------------------------------------------|
|---------------------------------------------------------------------------|
|---------------------------------------------------------------------------|
|-5-5-5555-5-55-55—-5-55-55-7--------7--------7--------7-----------1~-------|
|-5-5-5555-5-55-55—-5-55-55-7--------7--------7--------7-----------1~-------|
|-5-5-5555-5-55-55--5-55-55—7/////---7/////---7/////---7/////------0~-------|
                                                                   .

(1:58) BREAKDOWN
|----------------------------------------------------------------------------|
|----------------------------------------------------------------------------|
|----------------------------------------------------------------------------|
|----------------------------------------------------------------------------|
|----------------------------------------------------------------------------|
|-0-00000-000-0-0-0--0-00000-000-0-0-0--0-00000-000-0-0-0--0-00000-000—00000-|
  . ..... ... . . .  . ..... ... . . .  . ..... ... . . .  . ..... ... .....

|---------------------------------------------------------------------------|
|---------------------------------------------------------------------------|
|---------------------------------------------------------------------------|
|-1-11111~-----------1-11111~-----------1-11111~-----------1-11111~---3-5-7-|
|-1-11111~-----------1-11111~-----------1-11111~-----------1-11111~---3-5-7-|
|-0-00000~-----------0-00000~-----------0-00000~-----------0-00000~---3-5-7-|
  . .....            . .....            . .....            . .....

(2:34) “I never thought I’d see the day”
|------------7--------------------12--------------3-------------------------|
|-------10-----10-----------13-------13-------6-----6-----------------------|
|-----9----9-------------12----12-----------5---5---------------------------|
|-7-7--------------10-10----------------3-3---------------------------------|
|-7~---------------10~------------------3~----------------------------------|
|-7~---------------10~------------------3~----------------------------------|

(2:48) “I never thought..”
|---------------------------------------------------------------------------|
|---------------------------------------------------------------------------|
|---------------------------------------------------------------------------|
|-7--------10--------3--------5---------------------------------------------|
|-7-(16x)--10-(16x)--3-(16x)--5-(16x)---------------------------------------|
|-7--------10--------3--------5-------------(2x)----------------------------|


| /  slide up
| ~  vibrato
| .  Mute note

   ============================================================================
Tap to rate this tab
 
# A B C D E F G H I J K L M N O P Q R S T U V W X Y Z