Song name
# A B C D E F G H I J K L M N O P Q R S T U V W X Y Z

Broadway - We Are Paramount tab

-------------------------------------------------------------------------------
			     We Are Paramount - Broadway
-------------------------------------------------------------------------------
Tabbed by: King_cj
Email: thadudechester@gmail.com

Tuning: Drop D


Intro
e|------------------------------------|--------------------------------------|
B|--------6------6-6-6----------------|--------------------------------------|
G|--------9------9-9-9--10-----12-----|--------------------------------------|
D|--0-850--0-850--------8------10-----|--x2----------------------------------|
A|--0-850--0-850--------8--x8--10--8--|--------------------------------------|
E|--0-850--0-850--------8------10-----|--------------------------------------|

e|---------------------------------------------------------------------------|
B|---------------------------------------------------------------------------|
G|---------------------------------------------------------------------------|
D|---------------------------------------------------------------------------|
A|-00000-00000-0-0-00000------x2---------------------------------------------|
E|-00000-00000-0-0-00000-----------------------------------------------------|
  ..... ..... . . .....

Verse:
e|---------------------------------------------------------------------------|
B|-------6-------6-6-6-------6--------6-6-6-------9--------6-6-6-------------|
G|-------9-------9-9-9-------9--------9-9-9-------9--------9-9-9--10----12---|
D|-0-850---0-850-------0-850----0-850-------0-850----0-850--------8-----10---|
A|-0-850---0-850-------0-850----0-850-------0-850----0-850--------8--x8-10-x8|
E|-0-850---0-850-------0-850----0-850-------0-850----0-850--------8-----10---|

e|---------------------------------------------------------------------------|
B|-------6-------6-----------6--------6-----------9--------6-----------------|
G|-------9-------9-----------9--------9-----------9--------9------10----12---|
D|-0-850---0-850---58--0-850----0-850---58--0-850----0-850---58---8-----10---|
A|-0-850---0-850---58--0-850----0-850---58--0-850----0-850---58---8--x8-10-x8|
E|-0-850---0-850---58--0-850----0-850---58--0-850----0-850---58---8-----10---|

Chorus:
e|---------------------------------------------------------------------------|
B|---------------------------------------------------------------------------|
G|--------------------------------------------------7777-9999-10101010-------|
D|--8--5--0--3--8--5--0--0--8--5--0--3--8--5--0--|--xxxx-xxxx-x-x-x-x---0~ --|
A|--8--5--0--3--8--5--0--0--8--5--0--3--8--5--0--|--5555-7777-8-8-8-8---0~ --|
E|--8--5--0--3--8--5--0--0--8--5--0--3--8--5--0--|--0000-0000-0-0-0-0---0~ --|
 (figure out the struming pattern,  it's easy)

verse:

e|-----------------|---------------------------------------------------------|
B|-----------------|---------------------------------------------------------|
G|-----------------|-12/14---12-----9/10------7----9----10---17--------------|
D|-7~------7~------|-x-------x------x-x-------x----x----x----x---x2----0~ ---|
A|-7~------7~------|-10/12---10-----7/8-------5----7----8----15--------0~ ---|
E|-7~------7~------|---------------------------------------------------0~ ---|

Chorus:
e|---------------------------------------------------------------------------|
B|---------------------------------------------------------------------------|
G|--------------------------------------------------7777-9999-10101010-------|
D|--8--5--0--3--8--5--0--0--8--5--0--3--8--5--0--|--xxxx-xxxx-x-x-x-x---0~ --|
A|--8--5--0--3--8--5--0--0--8--5--0--3--8--5--0--|--5555-7777-8-8-8-8---0~ --|
E|--8--5--0--3--8--5--0--0--8--5--0--3--8--5--0--|--0000-0000-0-0-0-0---0~ --|

ending section: lead guitar coming soon!
e|--------------------------------|------------------------------------------|
B|--------------------------------|------------------------------------------|
G|--------------------------------|------------------------------------------|
D|-----8-----0-----3------5-------|---8~ ----0~ -----------------------------|
A|-----8-x16-0-x16-3-x16--5-x16---|---8~ ----0~ -----------------------------|
E|-----8-----0-----3------5-------|---8~ ----0~ -----------------------------|
       .........................

e|---------------------------------------------------------------------------|
B|---------------------------------121312------------------------------------|
G|----------------------------------------131413-----------------------------|
D|---------3-----3-----3------------------------141514-----------------------|
A|---------7-----7-----7----x4------------------------141514-----------------|
E|--0-0000---000---000-------------------------------------------------------|
      ....   ...   ...               hph    hph   hph   hph

e|---------------------------------------------------------------------------|
B|---------------------------------------------------------------------------|
G|---------------------------------------------------------------------------|
D|---------3-----3-----3-----------------------------------------------------|
A|---------7-----7-----7----x4-----------------------------------------------|
E|--0-0000---000---000-------------------------------------------------------|
      ....   ...   ...

e|---------------------------------------------------------------------------|
B|---------------------------------------------------------------------------|
G|---------------------------------------------------------------------------|
D|--0-00000-0-0-00000-00000--------------------------------------------------|
A|--0-00000-0-0-00000-00000---x4---------------------------------------------|
E|--0-00000-0-0-00000-00000--------------------------------------------------|


I'm still working on the lead parts for this song, they're very tricky.  But any 
on the rythem send me an email.


***********************************

| /   slide up
| \   slide down
| h   hammer-on
| p   pull-off
| ~   let ring
| .   Mute note

************************************
Tap to rate this tab
 
# A B C D E F G H I J K L M N O P Q R S T U V W X Y Z