Guitaretab - guitar tabs
Song name
# A B C D E F G H I J K L M N O P Q R S T U V W X Y Z

Broadways - Rainy Day tab

this is the band that split and formed honor system and lawrence arms a while back heres
a pretty sweet song by them i get the rest on it later
[ Tab from: http://www.guitaretab.com/b/broadways/132824.html ]
guitar 2
e|----------------------------------------------------------------------------|
B]----------------------------------------------------------------------------|
G|9-----------------7---------------------------------------------------------|
D|9-x6---7-----9----7-x3-7----------------------------------------------------|
A|7------7-x6--9-x3-5----7-x until pm-----------------------------------------|
E|-------5-----7---------5----------------------------------------------------|
guitar 1
e|---------------------------------------------------------------------------|
B|---------------------------------------------------------------------------|
G|9----11----13------/15-----------------------------------------------------|
D|x-x2--x-x2--x--x3----x-----------------------------------------------------|
A|7-----9----11------/13-----------------------------------------------------|
E|---------------------------------------------------------------------------|

im too lazy to tab out the rest right now so tahtah for now -damon
aim sn : damonrocks
Related for Rainy Day tab