Song name
# A B C D E F G H I J K L M N O P Q R S T U V W X Y Z

Broadways - Ben Moves To California tab

http://www.main.com/~jaw/slapstick/broadways.html
America, Chicago
The Broadways

Ben Moves To California

This is a cool song with Bren and Dan singing. I really love this song.

Anyway, you'll have to do the rhythm yourself, but it is amazingly simple.

I doubt many people will look at this, but if you do, thanks.

First Bit PM Clean

E--------------------------|
B--------------------------|
G--7-----7--------7--------|
D--7--5--7--5--7--7--------|
A--5--5--5--5--7--5--------|
E-----3-----3--5-----------|

Second Bit PM Distorted

E--------------------------|
B--------------------------|
G-----------7-----------2--|
D--5--7--9--7--5--4--2--2--|
A--5--7--9--5--5--4--2--0--|
E--3--5--7-----3--2--0-----|

Brendan singing/Fast bit

E---------------------------|
B---------------------------|
G--7------------------------|
D--7--5--9--7--5------------|
A--5--5--9--7--5------------|
E-----3--7--5--3------------|

End PM

E--------------------------|
B--------------------------|
G--7-----------------------|
D--7--7--5-----------------|
A--5--7--5-----------------|
E-----5--3-----------------|

Song Order
First Bit (x2)
Second Bit (x1)
First Bit (x2)
Second Bit (x1)
Brendan Singing (x3)
End (x1)
End on G--7--
       D--7--
       A--5--

Enjoy
Graham
Tap to rate this tab
 
# A B C D E F G H I J K L M N O P Q R S T U V W X Y Z