Song name
# A B C D E F G H I J K L M N O P Q R S T U V W X Y Z

Broadways - Well Have A Party tab

#----------------------------------PLEASE NOTE--------------------------------#
#This file is the author's own work and represents their interpretation of the#
#song. You may only use this file for private study, scholarship, or research.#
#-----------------------------------------------------------------------------#
#-- File created with Instab - http://www.pconline.com/~smcarey/instab.html --#
#-----------------------------------------------------------------------------#

Author/Artist: The Broadways
Title: We'll have a party
Album: Broken Star
Transcribed by: Weemon
Email: alkalinetrio6204@aol.com

ok this song was really irritating to tab so i havent typed out number of strokes
for each chord... its just a basic tab of the song.. its all there.. just work out
the order and how many times you play which part etc.. your smart people you can so it.

-----------------------------------------------------------------------------|
-----------------------------------------------------------------------------|
-------------55555-----------------------------------------------------------|
-55555---4-5-55555---4-5-----------------------------------------------------|
-55555-5-----33333-5---------------------------------------------------------|
-33333-----------------------------------------------------------------------|
 "the sun came up..."

-----------------------------------------------------------------------------|
-----------------------------------------------------------------------------|
-----------------------------------------------------------------------------|
-5~-----5~-4-5---------------------------------------------------------------|
-5~---5----------------------------------------------------------------------|
-3~-3------------------------------------------------------------------------|


-----------------------------------------------------------------------------|
-----------------------------------------------------------------------------|
---7-5-----7-5-----5---7-5~--------------------------------------------------|
-5-7-5-2-2-7-5-2-2-5-5-7-5~--------------------------------------------------|
-5-5-3-2-2-5-3-2-2-3-5-5-3~--------------------------------------------------|
-3-----0-0-----0-0---3-------------------------------------------------------|
 "so what if we can make..."

-----------------------------------------------------------------------------|
-----------------------------------------------------------------------------|
---5-------5-4-4-2-2-0-0-2-2--4-4-2-2-0-0-2-2----5---------------------------|
-2-5-5-4-2-5-----------------------------------2-5-5-4-----------------------|
-2-3-5-4-2-3-----------------------------------2-3-5-4-----------------------|
-0---3-2-0-------------------------------------0---3-2-----------------------|
 . . . . . . . . . . . . . . . . . . . . . . .
"the sun came up..."

--------------------------------|--------------------------------------------|
--------------------------------|---------5----------------------------------|
---5-7-12-7-5-7-12-7-5-7--------|---5-5-7------------------------------------|
-2-5-7-12-7-5-7-12-7-5-7--------|-2-5----------------------------------------|
-2-3-5-10-5-3-5-10-5-3-5--------|-2-3----------------------------------------|
-0------------------------------|-0------------------------------------------|
 "i'll be a friedn to you...."   after "they dont call here anymore.." line

---------|-------------------------------------------------------------------|
---------|-------------------------------------------------------------------|
---5-----|-------------------------------------------------------------------|
-2-5-5-4-|-------------------------------------------------------------------|
-2-3-5-4-|-------------------------------------------------------------------|
-0---3-2-|-------------------------------------------------------------------|
 "so it all comes down to this..."

-----------------------------------------------------------------------------|
-----------------------------------------------------------------------------|
----5~-----------------------------------------------------------------------|
-2~-5~-5~--------------------------------------------------------------------|
-2~-3~-5~--------------------------------------------------------------------|
-0~----3~--------------------------------------------------------------------|
 "so you think you really run your life..."

-----------------------------------------------------------------------------|
-----------------------------------------------------------------------------|
------7------7--------7------7------7--------7-------------------------------|
-----------------------------------------------------------------------------|
-9-10---9-10---9-9-10---9-10---9-10---9-9-10---9-12-10-9---------------------|
-----------------------------------------------------------------------------|


-----------------------------------------------------------------------------|
-----------------------------------------------------------------------------|
------7------7--------7------7------7--------7---9-7-------------------------|
-----------------------------------------------------9-----------------------|
-9-10---9-10---9-9-10---9-10---9-10---9-9-10---9-----------------------------|
-----------------------------------------------------------------------------|


-----------------------------------------------------------------------------|
-----------------------------------------------------------------------------|
------7------7--------7------7---12-14-16-12-11----11-12-11------------------|
----------------------------------x--x--x-------12----------12-9-------------|
-9-10---9-10---9-9-10---9-10---9-10-12-14------------------------------------|
-----------------------------------------------------------------------------|
Tap to rate this tab
# A B C D E F G H I J K L M N O P Q R S T U V W X Y Z