Song name
# A B C D E F G H I J K L M N O P Q R S T U V W X Y Z

Broder Daniel - Confusion tab

Listen to the song while you're reading the tab first. Enjoy

E[-----------------------------------------------------------------------------]
A[-----------------------------------------------------------------------------]
D[-----------------------------------------------------------------------------]
G[-----------------------------------------------------------------------------]
B[--------------6--4---------------6--4--------------8--6----------------8--6--]
E[--3-3-3-3-3-3--------3-3-3-3-3-3-------4-4-4-4-4-4-------4-4-4-4-4-4---------]x2



E[-----------------------------------------------------------------------------]
A[-----------------------------------------------------------------------------]
D[-----------------------------------------------------------------------------]
G[-----------------------------------------------------------------------------]
B[----6----------6----------6----------6---------------------------------------]
E[-3----3-----3----3-----3----3-----3----3-----4--4-1-----4--4-1-----4--4-1----]
   Confusion  Confusion  Confusion  Confusion  Confusion  Confusion  Confusion

E[-----------------------------------------------------------------------------]
A[-----------------------------------------------------------------------------]
D[-----------------------------------------------------------------------------]
G[-----------------------------------------------------------------------------]
B[-------------6-4---------------6-4----------------8--6---------------8--6----]
E[-3-3-3-3-3-3-------3-3-3-3-3-3--------4-4-4-4-4-4--------4-4-4-4-4-4---------]
   ----------Cooonfuuusion----------    -----------Cooonfuuusioon----------



E[----------------------------------------------------------------------------------]
A[----------------------------------------------------------------------------------]
D[----------------------------------------------------------------------------------]
G[----------------------------------------------------------------------------------]
B[---6-----------6-----------6-----------6------------------------------------------]
E[-3------3----3------3----3------3----3------3----4-4----1----4-4----1----4-4----1-]
   I love you  I love you  I love you  I love you  I love you  I love you  I love you



E[-----------------------------------------------------------------------------]
A[-----------------------------------------------------------------------------]
D[-----------------------------------------------------------------------------]
G[-----------------------------------------------------------------------------]
B[----6----------6----------6----------6---------------------------------------]
E[-3----3-----3----3-----3----3-----3----3-----4--4-1-----4--4-1-----4--4-1----]
   Confusion  Confusion  Confusion  Confusion  Confusion  Confusion  Confusion

E[-----------------------------------------------------------------------------]
A[-----------------------------------------------------------------------------]
D[-----------------------------------------------------------------------------]
G[-----------------------------------------------------------------------------]
B[-------------6-4---------------6-4----------------8--6---------------8--6----]
E[-3-3-3-3-3-3-------3-3-3-3-3-3--------4-4-4-4-4-4--------4-4-4-4-4-4---------]
   ----------Cooonfuuusion----------    -----------Cooonfuuusioon----------

E[-----------------------------------------------------------------------------]
A[-----------------------------------------------------------------------------]
D[-----------------------------------------------------------------------------]
G[-----------------------------------------------------------------------------]
B[--------------6--4---------------6--4--------------8--6----------------8--6--]
E[--3-3-3-3-3-3--------3-3-3-3-3-3-------4-4-4-4-4-4-------4-4-4-4-4-4---------]

E[-----------------------------------------------------------------------------]
A[-----------------------------------------------------------------------------]
D[-----------------------------------------------------------------------------]
G[-----------------------------------------------------------------------------]
B[----6----------6----------6----------6---------------------------------------]
E[-3----3-----3----3-----3----3-----3----3-----4--4-1-----4--4-1-----4--4-1----]
   Confusion  Confusion  Confusion  Confusion  Confusion  Confusion  Confusion


E[-----------------------------------------------------------------------------]
A[-----------------------------------------------------------------------------]
D[-----------------------------------------------------------------------------]
G[-----------------------------------------------------------------------------]
B[-------------6-4---------------6-4----------------8--6---------------8--6----]
E[-3-3-3-3-3-3-------3-3-3-3-3-3--------4-4-4-4-4-4--------4-4-4-4-4-4---------]
  Ahahaahaaaaaaaah  Ahahaahaaaaaaaah    -Cooonfuuusioon-   -Cooonfuuusioon-

E[-----------------------------------------------------------------------------]
A[-----------------------------------------------------------------------------]
D[-----------------------------------------------------------------------------]
G[-----------------------------------------------------------------------------]
B[--------------6--4---------------6--4--------------8--6----------------8--6--]
E[--3-3-3-3-3-3--------3-3-3-3-3-3-------4-4-4-4-4-4-------4-4-4-4-4-4---------]
    -Cooonfuuusioon-   -Cooonfuuusioon-  -Cooonfuuusioon-  -Cooonfuuusioon-
Tap to rate this tab
 
# A B C D E F G H I J K L M N O P Q R S T U V W X Y Z