Song name
# A B C D E F G H I J K L M N O P Q R S T U V W X Y Z

Broder Daniel - Whirlwind tab

Denna version är lite lättare att spela (samma toner som i övriga två tabs här på UG.com 
behändigare läge på greppbrädan!)

Whirlwind - Broder Daniel

Gitarr 1:

E---------------------------------------------------------------|
B---------------------------------------------------------------|
G-------11-11-11------------------------9-9-9-------------------|
D----------------11-11-11-9-9-7-7-------------9-9-9-7h9-7h9-s11-|
A-9-9-9---------------------------7-7-7-------------------------|
E---------------------------------------------------------------|

Gitarr 2:


E-9-7-5-7-9--7-5-4-5-7------------------------------------------|
B---------------------------------------------------------------|
G---------------------------------------------------------------|
D---------------------------------------------------------------|
A---------------------------------------------------------------|
E---------------------------------------------------------------|

Repeat.
Tap to rate this tab
# A B C D E F G H I J K L M N O P Q R S T U V W X Y Z