Song name
# A B C D E F G H I J K L M N O P Q R S T U V W X Y Z

Broder Daniel - No Time For Us Acoustic tab

------------------------------------------------------------------
	                 No Time For Us - Broder Daniel
------------------------------------------------------------------
Tabbed by: Mangoinmydreams

Standard tuning. Capo 3rd fret.


  C                 G           Am                F
e[-------3---------------6-6--------------3-------------4---------]
B[---------4------------------3h4---------- 4---------4--4--------]
G[-----3-----3--------------------------5-----5-----5------5------]
D[---5---------5----------------------5---------5-6----------6----]
A[-6-----------------5--------------3-----------------------------]
E[------------------6---------------------------------------------]

Played again and again throughout the whole song.


C                G
There is no time for us
Am               F
There is no time for us
C                  G
Oh the world won't understand
Am                F
It's left no time for us

C G Am F x2

C                  G
I love a girl I'll never see her again
Am               F
She was so young I'll never see her again
C            G
She was so young
Am                 F
I'll never see her again

C G Am F x2

C            G
What is worthwhile in the world
Am                       F
If you can't be with the one you love
C            G
What is worthwhile
Am                 F
We'll be forgotten when we're gone

C G Am F x1

Am G C F x2 <--These 8 chords are not fingerpicked

C G Am F x1

C          G
If I could change one thing in life
Am            F
I'd make time for us
C                 G
If I could change one thing
Am            F
I'd make time for us
Tap to rate this tab
# A B C D E F G H I J K L M N O P Q R S T U V W X Y Z