Song name
# A B C D E F G H I J K L M N O P Q R S T U V W X Y Z

Broder Daniel - Ill Be Gone tab

---------------------------------------------------------------------------
			     I’ll Be Gone – Broder Daniel
---------------------------------------------------------------------------
Tabbed by: JT
Email:
Tuning: Standard




Intro riff:
e|-------------------------------------7-7--5-4---------------------------|
B|----------------------5-5---3-2-------------------9-10-9-7--------------|
G|-------6-6---4-2--------------------------------------------------------|
D|---4-4-----------------------------------------------------------x4-----|
A|------------------5-5------------7-7------------------------------------|
E|----------------------------------------------7-7-----------------------|



Intro/Verse riff for 2nd guitar:
e|------------------------------------------------------------------------|
B|------------------------------------------------------------------------|
G|---11-111-111111---7--7-7--7-7-7---9--9-9--9-9-9------------------------|
D|---11-111-111111---7--7-7—-7-7-7---9--9-9--9-9-9---9--9-9--9-9-9—-x2----|
A|---9--9-9--9-9-9---5--5-5--5-5-5---7--7-7--7-7-7---9--9-9--9-9-9--------|
E|---------------------------------------------------7--7-7--7-7-7--------|



Verse for both guitars:
e|------------------------------------------------------------------------|
B|------------------------------------------------------------------------|
G|---11-111-111111---7--7-7--7-7-7---9--9-9--9-9-9------------------------|
D|---11-111-111111---7--7-7—-7-7-7---9--9-9--9-9-9---9--9-9--9-9-9—-x2----|
A|---9--9-9--9-9-9---5--5-5--5-5-5---7--7-7--7-7-7---9--9-9--9-9-9--------|
E|---------------------------------------------------7--7-7--7-7-7--------|
   “I won’t last long…”     



Chorus for both guitars:
e|------------------------------------------------------------------------|
B|------------------------------------------------------------------------|
G|---11111111111---7-7-7-7-7-7-7-7-7-7-7-7--------------------------------|
D|---11111111111---7-7-7-7-7-7-7-7-7-7-7-7----7-7-7-7-7-7-7-7-7-7-7-7-----|
A|---9-9-9-9-9-9---5-5-5-5-5-5-5-5-5-5-5-5----7-7-7-7-7-7-7-7-7-7-7-7-----|
E|--------------------------------------------5-5-5-5-5-5-5-5-5-5-5-5-----|
    “It’s all the same…”



e|------------------------------------------------------------------------|
B|------------------------------------------------------------------------|
G|---9-9-9-9-9-9-9-9-9----------------------------------------------------|
D|---9-9-9-9-9-9-9-9-9----------------------------------------------------|
A|---7-7-7-7-7-7-7-7-7----------------------------------------------------|
E|------------------------------------------------------------------------|
   “To me, ohh oh ah” 


Solo part 1:
e|---9--7--5--12-14—10--10-10-10--12--9---9--9-9-10--7--9-7-5-4-----------|
B|------------------------------------------------------------------------|
G|------------------------------------------------------------------------|
D|------------------------------------------------------------------------|
A|------------------------------------------------------------------------|
E|------------------------------------------------------------------------|


Solo part 2:
e|------------------------------------------------------------------------|
B|----------------------10--9---------------------------------------------|
G|------11---14--13---9---------------------------------------------------|
D|-------------------------------x-4--------------------------------------|
A|------------------------------------------------------------------------|
E|------------------------------------------------------------------------|
       “I’ll be gone!”



Bridge between the solo and the chorus:
e|------------------------------------------------------------------------|
B|------------------------------------------------------------------------|
G|---111111111111111111111--11111111111-----------------------------------|
D|---111111111111111111111--11111111111-----------------------------------|
A|---9-9-9-9-9-9-9-9-9-9-9--9-9-9-9-9-9-----------------------------------|
E|------------------------------------------------------------------------|
                       “There’s nothing for me…”




Song order for guitar 1:
Intro riff x4
Verse riff x2
Chorus
Intro riff x2
Verse riff x2
Chorus x2
Intro riff x2
Verse riff x2
Chorus
Solo part 1
Solo part 2
Bridge
Chorus x2

Song order for guitar 2:
Verse riff x2
Chorus
Verse riff x4
Chorus x2
Verse riff x4
Chorus x2
Verse riff x2
Chorus x2


************************************

| /   slide up
| \   slide down
| h   hammer-on
| p   pull-off
| ~   vibrato
| +   harmonic
| x   Mute note
| b   Bend
| pb  Pre-bend
| br  Bend release
| pbr Pre-bend release
| brb Bend release bend

************************************

Tap to rate this tab
# A B C D E F G H I J K L M N O P Q R S T U V W X Y Z