Song name
# A B C D E F G H I J K L M N O P Q R S T U V W X Y Z

Broder Daniel - Only Life I Know chords

Highlighted       Show chord diagrams
(kompgitarren spelar med capo på 2:a bandet)
vers:

Em*              D
I walk home the same old streets
G                 C
By grey walls and hard concrete
Em                   D
I see the factoriesī silhouette
G                C
Oh my love Iīm a poet

vers:

Em*        D
I am only living
G         C
When I am drinking
      Em         D
Cause I got no alternatives
G             C
I am out of initiatives

Ref:

Em       C           G
Itīs the only life I know
   C        C/B        Am
To wear the streets of this town
        G        G/F#      Em
To wear down the sidewalks home
         C           G
Itīs the only life I learned
D                          C
To wear the street of this old town

vers:

Em*             D
I watch the days go by
G            C
While life is on standby
    Em               D
But Iīve got no more time to give
G                C
We all die, but not all live

ref:

Em       C           G
Itīs the only life I know
   C        C/B        Am
To wear the streets of this town
        G        G/F#      Em
To wear down the sidewalks home
         C           G
Itīs the only life I learned
D                          C
To wear the street of this old town


Em       C       G     D            Em
e---------------------------------------|
B---------------------------------------|
G---------------------------------------|
D-4--4-4-4-7-7-6-7-2--------------------|
A--------------------4--4-2-4-5-4-2-0---|
E-------------------------------------2-|
        C          G          D         Em*
e---------------------------------------------|
B-7-7-7-10-10-9-10-5-2--2-2-2---2-3-2---------|
G-----------------------------4-------4-2-----|
D-----------------------------------------4---|
A---------------------------------------------|
E---------------------------------------------|

ref:


Em       C           G
Itīs the only life I know
   C        C/B        Am
To wear the streets of this town
        G        G/F#      Em
To wear down the sidewalks home
         C           G
Itīs the only life I learned
D                          C
To wear the street of this cold town
             Em
Of this cold town
Tap to rate this tab
 
# A B C D E F G H I J K L M N O P Q R S T U V W X Y Z