Guitaretab - guitar tabs
Song name
# A B C D E F G H I J K L M N O P Q R S T U V W X Y Z

Brodie - Leave This Town tab

Artist: Brodie
Song: Leave This Town
Tabbed By: Tim Bryant
Email: theimmoralmonkey@hotmail.com

Sweet song…… What more can I say????

Intro - Rhythm Guitar


--------------
--------------
--------------
--4--7--------
--2--5--7--5--
--------5--3--

Intro - Lead Guitar

1st time
----------------------------------------------------------
----------------------------------------------------------
----------------------------------------------------------
--11--9--11--12--11--7--11--14--12--11--9--11--12--11--7--
--9---7--9---10--9---5--9---12--10--9---7--9---10--9---5--
----------------------------------------------------------
[ Tab from: http://www.guitaretab.com/b/brodie/31367.html ]
2nd time
--------------------------------------------------
--------------------------------------------------
--------------------------------------------------
--11--9--11--12--11--7--11--14--12--11--9--11--7--
--9---7--9---10--9---5--9---12--10--9---7--9---5--
--------------------------------------------------


Verse

--------------
--------------
--------------
--4--7--------
--2--5--7--5--
--------5--3--

Piece right before the chorus

--------
--------
--------
--------
--5--7--
--3--5--


Chorus

-----------------------
-----------------------
-----------------------
--7-----4-----------7--
--5--7--2--5--5--7--5--
-----5-----2--3--5-----

that’s it, im spent. Laters everyone

check out a new fresh local band www.seraphscoal.com

im spent
Related for Leave This Town tab