Song name
# A B C D E F G H I J K L M N O P Q R S T U V W X Y Z

Broilers - Paul Der Hooligan tab

intro

e------------------------------------------------------|
H------------------------------------------------------|
G-4--x-x-x-x-x-x-4--x-x-x-x-x-x-4--x-x-x-x-x-x-7-----7-|
D-4--x-x-x-x-x-x-4--x-x-x-x-x-x-4--x-x-x-x-x-x-7--7--7-|
A-2--x-x-x-x-x-x-2--x-x-x-x-x-x-2--x-x-x-x-x-x-5--7--5-|
E-------------------------------------------------5----|

pre-verse

e---------------------|
H----2-3-2---------2--|
G-4--------4-2--------|
D---------------4-----|
A---------------------|
E---------------------|

verse

e----------------|    *= continue as much as you need
H----------------|
G-4*----7*-------|
D-4*----7*----7--|
A-2*----5*----7--|
E-------------5--|

pre-chorus

e-----------------|
H-----------------|
G-----------------|
D-7-7-777-777-7-7-|
A-7-7-777-777-7-7-|
E-5-5-555-555-5-5-|

chorus

e-------------|
H-------------|
G----9*-7*-7--|
D-7*-9*-7*-7--|
A-7*-7*-5*-7--|
E-5*----------|

then intro
then verse
then pre-chorus
then chorus

interlude
off-beat now

e---------------------|
H---------------------|
G------------7-7--9-9-|
D--7-7--9-9--7-7--9-9-|
A--7-7--9-9--5-5--7-7-|
E--5-5--7-7-----------|

pre-chorus

chorus

ending

e--       let ring
H--
G--
D-7
A-7
E-5
Tap to rate this tab
# A B C D E F G H I J K L M N O P Q R S T U V W X Y Z