Song name
# A B C D E F G H I J K L M N O P Q R S T U V W X Y Z

Broilers - Zurck In Schwarz tab

-----------------------------------------------------------------------------
ZURÜCK IN SCHWARZ - Broilers
-----------------------------------------------------------------------------

Ich hoffe es hilft jemandem :)

Tuning: Standard


Intro: (x2) 
e|----------------|
H|----------------|
G|-55------88-----|
D|-55--66--88--88-|
A|-33--66--66--88-|
E|-----44------66-|    

Strophe Part 1: (x7) Strophe Part 2:

   Cm  As  Es  Bb     Cm  As  Gm
e|----------------|  |---------------|
H|----------------|  |---------------|
G|-55------88-----|  |-55------------|
D|-55--66--88--88-|  |-55--66--5-----|
A|-33--66--66--88-|  |-33--66--5-----|
E|-----44------66-|  |-----44--3-----|

Refrain:

   Cm      Es      Gm      As      Cm      Es      Gm      As
e|-----------------------------------------------------------------|
H|-----------------------------------------------------------------|
G|-5-5-5-5-8-8-8-8-----------------5-5-5-5-8-8-8-8-----------------|
D|-5-5-5-5-8-8-8-8-5-5-5-5-6-6-6-6-5-5-5-5-8-8-8-8-5-5-5-5-6-6-6-6-|
A|-3-3-3-3-6-6-6-6-5-5-5-5-6-6-6-6-3-3-3-3-6-6-6-6-5-5-5-5-6-6-6-6-|
E|-----------------3-3-3-3-4-4-4-4-----------------3-3-3-3-4-4-4-4-|


   Es      Cm      Gm      As      Es      Cm      Gm      As
e|-----------------------------------------------------------------|
H|-----------------------------------------------------------------|
G|-8-8-8-8-5-5-5-5-----------------8-8-8-8-5-5-5-5-----------------|
D|-8-8-8-8-5-5-5-5-5-5-5-5-6-6-6-6-8-8-8-8-5-5-5-5-5-5-5-5-6-6-6-6-|
A|-6-6-6-6-3-3-3-3-5-5-5-5-6-6-6-6-6-6-6-6-3-3-3-3-5-5-5-5-6-6-6-6-|
E|-----------------3-3-3-3-4-4-4-4-----------------3-3-3-3-4-4-4-4-|

Intro (x2)

Strophe Part 1 (x7)
Strophe Part 2

Refrain

Bridge: (x5)

(Palm Mute)

   Cm                          As 
e|----------------------------------------------------------------|
H|-------------8-8-------------8-8-------------8-8-------------8-8|
G|-5-5-7-7-8-8-----5-5-7-7-8-8-----5-5-7-7-8-8-----5-5-7-7-8-8----|
D|----------------------------------------------------------------|
A|----------------------------------------------------------------|
E|----------------------------------------------------------------|

   Es
e|--------------------------------------------|
H|-----------------11-11-----------------11-11|
G|-8-8-10-10-12-12-------8-8-10-10-12-12------|
D|--------------------------------------------|
A|--------------------------------------------|
E|--------------------------------------------|  

   Bb
e|---------------------------------|
H|-------------6-6--------------6-6|
G|-3-3-5-5-7-7------3-3-5-5-7-7----|
D|---------------------------------|
A|---------------------------------|
E|---------------------------------|

Refrain
Tap to rate this tab
 
# A B C D E F G H I J K L M N O P Q R S T U V W X Y Z