Broken Bells - The Ghost Inside tab

(first tab)

This part is the verses and pretty much goes through the whole song, the chords being 
Em, B, A, and then Em, D, A

|--0-0-0-0-0-0-0-0-7-7-7-5-5-5-5-5-|
|----------------------------------|
|----------------------------------|
|----------------------------------|
|----------------------------------|
|----------------------------------|

|--0-0-0-0-0-0-0-0-10-10-10-5-5-5-5-5-|
|-------------------------------------|
|-------------------------------------|
|-------------------------------------|
|-------------------------------------|
|-------------------------------------|


The chorus has a second part which goes like this
|------7-------7-10--------2-5----------0-|
|--5-8-------8-----------3------------2---|
|-----------------------------------2-----|
|-----------------------------------------|
|-----------------------------------------|
Tap to rate this tab
 
# A B C D E F G H I J K L M N O P Q R S T U V W X Y Z