Song name
# A B C D E F G H I J K L M N O P Q R S T U V W X Y Z

Broken Bones - Decapitated tab

Broken Bones
Decapitated
Standard Tuning
I dont have the leads so just add what you want at that part of the song

Intro Part 

/-----------------------------------------------------------\
/-----------------------------------------------------------\
/-----------------------------------------------------------\
/-22222222---1010101010101010---99999999---1414141414141414-\
/-00000000---0-0-0-0-0-0-0-0----00000000----0-0-0-0-0-0-0-0-\
/-----------------------------------------------------------\
PM........   ................   ........   

/-------------------------------------------------------------\
/-------------------------------------------------------------\
/-------------------------------------------------14B-14B-14B-\
/-22222222---1010101010101010---99999999---141414-------------\
/-00000000---0-0-0-0-0-0-0-0----00000000----0-0-0-------------\
/-------------------------------------------------------------\
PM........   ................   ........


After Intro Before Verse

/-------------------------------\
/-------------------------------\
/-------------------------------\
/-22222222---1010101010101010---\
/-00000000---0-0-0-0-0-0-0-0----\
/-------------------------------\
PM........   ................   

/---------------------------------------------------------------------------\
/---------------------------------------------------------------------------\
/--987-987-987-987-1098-1098-1098-1098-11109-11109-11109-11109-121110-121110\
/---------------------------------------------------------------------------\
/---------------------------------------------------------------------------\
/---------------------------------------------------------------------------\

/---5-------------\
/---5--Bend Down--\
/---3-------------\

Verse
/-------------------------------------------------------------\
/-------------------------------------------------------------\
/-------------------------------------------------------------\
/----99999999---5555------------------------------------------\
/----99999999---5555---5555-----------------------------------\
/----77777777---3333---5555-----------------------------------\
/----------------------3333-----------------------------------\

Chorus
/-------------------------------------------------------------\
/-------------------------------------------------------------\
/-------------------------------------------------------------\
/-------------------------------------------------------------\
/---7---5---7---7777------------------------------------------\
/---7---5---7---7777------------------------------------------\
/---5---3---5---5555------------------------------------------\


Thats pretty much it, have fun with it.




Tap to rate this tab
# A B C D E F G H I J K L M N O P Q R S T U V W X Y Z