Broken Records - A Promise tab

Its a bit off, but i think it sounds nicer than the first chord.
also, for the chorus, you actually need to play those chord thingy's twice or 3 
times to get the right length for the chords.
^it makes sense to me.

Goodluck ;)


intro:
e|--------------------|
B|---5----7---8--12---|
G|-----0----0-------0-|
D|--------------------|
A|---3----5---7--10---|
E|--------------------|

e|---------------------------------------------|
B|---5----7---8--15---12~ --10----12---8~ -----|
G|-----0----0-------0-----------0----0---------|
D|---------------------------------------------|
A|---3----5---7--12---12~ --12----12---12~ ----|
E|---------------------------------------------|




Verse:

e|--------------------------------------------|
B|---5----7----8----12~ ----8---7~ ----7----5-|
G|-----0----0----0------------0----------0----|
D|--------------------------------------------|
A|---3----5----7----10~ ----7---5~ ----5----3-|
E|--------------------------------------------|


e|-----------------------------------------------------------|
B|---5----7----8----12~ ----8---7~ ----7----5~ ----0~ -0~ ---|
G|-----0----0----0------------0----------0-----------------0-|
D|-----------------------------------------------------------|
A|---3----5----7----10~ ----7---5~ ----5----3~ --------------|
E|-------------------------------------------------3~ -2~ -0-|



Chorus:

e|--------------------|
B|---5----7----12--5--|
G|-----0----0---------|
D|--------------------|
A|---3----5----10--3--|
E|--------------------|

e|--------------------|
B|---5----7---8--12---|
G|-----0----0---------|
D|--------------------|
A|---3----5---7--10---|
E|--------------------|

e|--------------------|
B|---5----7----12--5--|
G|-----0----0---------|
D|--------------------|
A|---3----5----10--3--|
E|--------------------|

Lyrics:

On this hill top 
I buried you
As a younger man 
We gathered 'round
Your empty husk
And spoke of how you were so loved

And as the sun died
I promised that I'd seek you out
Well now the years have weathered me
And soon I'll claim you for my arms again

And if our hearts all disappear 
And if our bones, they crumble to the soil
Well all our love will rise again

And if our hearts all disappear 
And if our bones, they crumble to the soil
And all our love will rise again
And we'll float to the sea

And if our hearts all disappear 
And if our bones, they crumble to the soil
And all our love will rise again
And we'll float to the sea	
Tap to rate this tab
 
# A B C D E F G H I J K L M N O P Q R S T U V W X Y Z