Song name
# A B C D E F G H I J K L M N O P Q R S T U V W X Y Z

Broken Social Scene - World Sick tab

-----------------------------------------------------------------------------
			     WORLD SICK - Broken Social Scene
-----------------------------------------------------------------------------

Tabbed by: dirty_deeds
Email: jmdeede@stthomas.edu

Tuning: Standard


The Riff:
e|--------------------------------------------------------------------------|
B|-------------14/17-17\15---13-12-13-12---------------------13-------------|
G|-------12-14-----------------------------12---14---12---14----14---14-12--|
D|-12h14--------------------------------------------------------------------|
A|--------------------------------------------------------------------------|
E|--------------------------------------------------------------------------|

e|--------------------------------------------------------------------------|
B|--------------------------------------------------------------------------|
G|--------------------------------------------------------------------------|
D|-12-14-12-14--------------------------------------------------------------|
A|--------------------------------------------------------------------------|
E|--------------------------------------------------------------------------|


The other part:
e|-(19)-(19)-19-19-----15-15------------------------------------------------|
B|--------------------------------------------------------------------------|
G|--------------------------------------------------------------------------|
D|--------------------------------------------------------------------------|
A|--------------------------------------------------------------------------|
E|--------------------------------------------------------------------------|


************************************

| /   slide up
| \   slide down
| h   hammer-on

************************************
Tap to rate this tab
 
# A B C D E F G H I J K L M N O P Q R S T U V W X Y Z