Song name
# A B C D E F G H I J K L M N O P Q R S T U V W X Y Z

Broken Social Scene - Texico Bitches tab

Song name: Texico Bitches
Band name: Broken Social Scene
Album: Forgiveness Rock Record
Tabbed by:Dylan Wagner
Email:soccer_player101@hotmail.com

Fun song, 'nuff said. I've been noticing an on-going D chord or Key of D if I am correct 
most of the Forgiveness Rock Record songs. Just a hint to you tabbers out there tabbing 
album.

Tuning: Standard

Intro/Verse Riff:

First Guitar:
e|------------------------------------------------------------------------|
B|------7-------7-------7-------7---------7-------7-----------------------|
G|----7---7---7---7---7---7---7---7-----0---0---0---0---9-9-7-7-9-9-7-7---|
D|--7-------7-------7-------7-------7-9-------9-------9-------------------|
A|------------------------------------------------------------------------|
E|------------------------------------------------------------------------|

First Bass:(Transcribed for EADGBe Guitar)
e|------------------------------------------------------------------------|
B|------------------------------------------------------------------------|
G|------------------------------------------------------------------------|
D|----------------------------5-5-7-7-7-----------------------------------|
A|--5-5-5-5-5-5-5-5-5-7-7-7-7---------------------------------------------|
E|------------------------------------------------------------------------|

Second Guitar
e|------------------------------------------------------------------------|
B|------------------------------------------------------------------------|
G|------------------------------------------------------------------------|
D|------------------------------------------------------------------------|
A|------------------------------------------------------------------------|
E|-12\--------------------------------------------------------------------|


Verse:
First Guitar:
e|------------------------------------------------------------------------|
B|------7-------7-------7-------7---------7-------7-----------------------|
G|----7---7---7---7---7---7---7---7-----0---0---0---0---9-9-7-7-9-9-7-7---|
D|--7-------7-------7-------7-------7-9-------9-------9-------------------|
A|------------------------------------------------------------------------|
E|------------------------------------------------------------------------|

First Bass:(Transcribed for EADGBe Guitar)
e|------------------------------------------------------------------------|
B|------------------------------------------------------------------------|
G|------------------------------------------------------------------------|
D|----------------------------5-5-7-7-7-----------------------------------|
A|--5-5-5-5-5-5-5-5-5-7-7-7-7---------------------------------------------|
E|------------------------------------------------------------------------|

Second Bass ([Wait, wait? TWO BASSISTS!?!?] Transcribed for EADGBe Guitar)
e|------------------------------------------------------------------------|
B|-v(Tremelo picking)v----------------------------------------------------|
G|-v-v-v-v-v-v-v-v-v-v----------------------------------------------------|
D|-16--14--17---16--14--12--9-----(Do a slide to the 19 fret for fun!)----|
A|------------------------------------------------------------------------|
E|------------------------------------------------------------------------|

Chorus:
First Guitar:
e|------------------------------------------------------------------------|
B|------------------------------------------------------------------------|
G|------------------------------------------------------------------------|
D|-----------------------2-----2/4-----2----------------------------------|
A|-2-0---2-0---2-0---2-0---2-0-----2-0------------------------------------|
E|-----2-----2-----2------------------------------------------------------|

First Bass:(Transcribed for blah blah blah)
e|------------------------------------------------------------------------|
B|------------------------------------------------------------------------|
G|------------------------------------------------------------------------|
D|----------------------------5-5-7-7-7-----------------------------------|
A|--5-5-5-5-5-5-5-5-5-7-7-7-7---------------------------------------------|
E|------------------------------------------------------------------------|

Second Guitar:
e|------------------------------------------------------------------------|
B|--------15-------15-----------------------------------------------------|
G|--14-------14-------14----14-------14-------14--------------------------|
D|-----16-------16-------16----16-17----16-17----16-17--------------------|
A|------------------------------------------------------------------------|
E|------------------------------------------------------------------------|

Second Bass:(You already know)
e|------------------------------------------------------------------------|
B|------(Do some freestyle with these notes provided)---------------------|
G|------------------------------------------------------------------------|
D|--------5-7-9-----------------------------------------------------------|
A|--5-7-9-----------------------------------------------------------------|
E|------------------------------------------------------------------------|

Bridge:
First or Second bass or both!:(Guess what? It's transcribed for EADGBe guitar!)
e|------------------------------------------------------------------------|
B|------------------------------------------------------------------------|
G|------------------------------------------------------------------------|
D|--0h2-0-----------------------------------------------------------------|
A|--------3-0-0h2-2-0---2-2-0---2-2-0-------------------------------------|
E|--------------------3-------3-------3-----------------------------------|

End:
First or Second bass or both!:(Transcribed for EADGBe guitar)
e|------------------------------------------------------------------------|
B|------------------------------------------------------------------------|
G|------------------------------------------------------------------------|
D|--5-5-2-2---------------------------------------------------------------|
A|------------------------------------------------------------------------|
E|----------0-0-----------------------------------------------------------|

Song Build:
Intro/Verse Riff
Chorus
Verse
Chorus
Bridge
Verse
Chorus
End.

Corrections or suggestions are appreciated. ;)
************************************

| /   slide up
| \   slide down
| h   hammer-on
| p   pull-off
| ~   vibrato
| +   harmonic
| x   Mute note
| b   Bend
| pb  Pre-bend
| br  Bend release
| pbr Pre-bend release
| brb Bend release bend

************************************
Tap to rate this tab
 
# A B C D E F G H I J K L M N O P Q R S T U V W X Y Z