Broken Social Scene - Lovers Spit chords

Highlighted       Show chord diagrams
Song: Lover's Spit
Arist: Broken Social Scene
Album: You Forgot It In People (2002)

Standard Tuning



Chords:

C  |--0-3-2-0-1-0--|
F  |--3-x-3-0-1-0--|
Am |----0-2-x-1-0--|
G  |--3-2-0-0-0-0--|


Intro:

    C                F                Am               G
e|-----0--------0-------0--------0-------0--------0-------0--------0--|
B|-----1--------1-------1--------1-------1--------1-------0--------0--|
G|--0--0--0-----0----0--0--0-----0----x--x--x--x--x----0--0--0-----0--|
D|--2--2--2--2-------3-----3--3-------2-----2--2-------0-----0--0-----|
A|--3-----3--3-------x-----x--x-------0-----0--0-------2-----2--2-----|
E|-------------------3-----3--3------------------------3-----3--3-----|


C            F                          Am     G
All these people drinking lover's spit
C            F                               Am     G
They sit around and clean their face with it
C                 F                            Am     G
And they listen to teeth to learn how to quit
C         F                      Am     G
Tied to a night they never met


C             
You know it's time
     F       Am                   G
That we grow old and do some shit
C                       F
I like it all that way
Am                      G
I like it all that way


C            F                          Am     G
All these people drinking lover's spit
C            F                       Am     G
Swallowing words while giving head
C              F                           Am     G
They listen to teeth to learn how to quit
C         F                         Am     G
Take some hands and get used to it


Bridge:

Guitar 1
    C                F                Am               G
e|-----0--------0-------0--------0-------0--------0-------0--------0--|
B|-----1--------1-------1--------1-------1--------1-------0--------0--|
G|--0--0--0-----0----0--0--0-----0----x--x--x--x--x----0--0--0-----0--| x2
D|--2--2--2--2-------3-----3--3-------2-----2--2-------0-----0--0-----|
A|--3-----3--3-------x-----x--x-------0-----0--0-------2-----2--2-----|
E|-------------------3-----3--3------------------------3-----3--3-----|

e|--0--0--0-----0----0--0--0-----0----0--0--0-----0----0--0--0-----0--|
B|--1--1--1-----1----1--1--1-----1----1--1--1-----1----1--1--1-----1--|
G|--0--0--0--0--0----0--0--0--0--0----0--0--0--2--0----0--0--0--0--0--|
D|--2--2--2--2-------0--0--0--0-------2--2--2--2-------0--0--0--0-----|
A|--3-----3--3-------3-----3--3-------3-----3--3-------3-----3--3-----|
E|--------------------------------------------------------------------|

Guitar 2
e|--0--1--3--0--1--3--0--1--|
B|--------------------------|
G|--------------------------|  x8
D|--------------------------|
A|--------------------------|
E|--------------------------|

e|--------------------------------------------------------|
B|--------------------------------------------------------|
G|--------------------------------------------------------|
D|--2--2--2--2----0--0--0--0----2--2--2--2----0--0--0--0--|
A|--3--3--3--3----3--3--3--3----3--3--3--3----3--3--3--3--|
E|--------------------------------------------------------|


C            F                          Am     G
All these people drinking lover's spit
C            F                               Am     G
They sit around and clean their face with it


C
You know it's time
     F       Am                   G
That we grow old and do some shit
C                       F
I like it all that way 
Am                      G
I like it all that way


Outro:

    C                F                F               G
e|--0--0--0-----0----0--0--0-----0----0--0--0-----0----0--0--0-----0--|
B|--1--1--1-----1----1--1--1-----1----1--1--1-----1----0--0--0-----0--|
G|--0--0--0--0--0----0--0--0--0--0----0--0--0--0--0----0--0--0-----0--|
D|--2--2--2--2-------3-----3--3-------3-----3--3-------0-----0--0-----|
A|--3-----3--3-------0-----0--0-------x-----x--x-------2-----2--2-----|
E|------------------------------------1-----1--1-------3-----3--3-----|

End on C




Tab by eskimoTea
Tap to rate this tab
 
# A B C D E F G H I J K L M N O P Q R S T U V W X Y Z